  0
SECTION
  2
HEADER
  9
$ACADVER
  1
AC1018
  9
$ACADMAINTVER
 70
   104
  9
$DWGCODEPAGE
  3
ANSI_1252
  9
$LASTSAVEDBY
  1
emilio
  9
$INSBASE
 10
0.0
 20
0.0
 30
0.0
  9
$EXTMIN
 10
-13551.31506
 20
-5897.921858900206
 30
0.0
  9
$EXTMAX
 10
-8943.748538306616
 20
-2349.569114
 30
0.0
  9
$LIMMIN
 10
0.0
 20
0.0
  9
$LIMMAX
 10
420.0
 20
297.0
  9
$ORTHOMODE
 70
     1
  9
$REGENMODE
 70
     1
  9
$FILLMODE
 70
     1
  9
$QTEXTMODE
 70
     0
  9
$MIRRTEXT
 70
     1
  9
$LTSCALE
 40
1.0
  9
$ATTMODE
 70
     1
  9
$TEXTSIZE
 40
40.0
  9
$TRACEWID
 40
1.0
  9
$TEXTSTYLE
  7
STANDARD
  9
$CLAYER
  8
0
  9
$CELTYPE
  6
ByLayer
  9
$CECOLOR
 62
   256
  9
$CELTSCALE
 40
1.0
  9
$DISPSILH
 70
     0
  9
$DIMSCALE
 40
1.0
  9
$DIMASZ
 40
80.0
  9
$DIMEXO
 40
0.625
  9
$DIMDLI
 40
40.0
  9
$DIMRND
 40
0.0
  9
$DIMDLE
 40
0.0
  9
$DIMEXE
 40
1.25
  9
$DIMTP
 40
0.0
  9
$DIMTM
 40
0.0
  9
$DIMTXT
 40
100.0
  9
$DIMCEN
 40
2.5
  9
$DIMTSZ
 40
0.0
  9
$DIMTOL
 70
     0
  9
$DIMLIM
 70
     0
  9
$DIMTIH
 70
     0
  9
$DIMTOH
 70
     0
  9
$DIMSE1
 70
     0
  9
$DIMSE2
 70
     0
  9
$DIMTAD
 70
     1
  9
$DIMZIN
 70
     8
  9
$DIMBLK
  1

  9
$DIMASO
 70
     1
  9
$DIMSHO
 70
     1
  9
$DIMPOST
  1

  9
$DIMAPOST
  1

  9
$DIMALT
 70
     0
  9
$DIMALTD
 70
     2
  9
$DIMALTF
 40
0.0394
  9
$DIMLFAC
 40
1.0
  9
$DIMTOFL
 70
     1
  9
$DIMTVP
 40
0.0
  9
$DIMTIX
 70
     0
  9
$DIMSOXD
 70
     0
  9
$DIMSAH
 70
     0
  9
$DIMBLK1
  1

  9
$DIMBLK2
  1

  9
$DIMSTYLE
  2
Standard
  9
$DIMCLRD
 70
     0
  9
$DIMCLRE
 70
     0
  9
$DIMCLRT
 70
     0
  9
$DIMTFAC
 40
0.0625
  9
$DIMGAP
 40
40.0
  9
$DIMJUST
 70
     0
  9
$DIMSD1
 70
     0
  9
$DIMSD2
 70
     0
  9
$DIMTOLJ
 70
     1
  9
$DIMTZIN
 70
     8
  9
$DIMALTZ
 70
     8
  9
$DIMALTTZ
 70
     8
  9
$DIMUPT
 70
     0
  9
$DIMDEC
 70
     4
  9
$DIMTDEC
 70
     4
  9
$DIMALTU
 70
     2
  9
$DIMALTTD
 70
     2
  9
$DIMTXSTY
  7
STANDARD
  9
$DIMAUNIT
 70
     0
  9
$DIMADEC
 70
     0
  9
$DIMALTRND
 40
0.0
  9
$DIMAZIN
 70
     0
  9
$DIMDSEP
 70
    46
  9
$DIMATFIT
 70
     3
  9
$DIMFRAC
 70
     0
  9
$DIMLDRBLK
  1

  9
$DIMLUNIT
 70
     2
  9
$DIMLWD
 70
    -2
  9
$DIMLWE
 70
    -2
  9
$DIMTMOVE
 70
     2
  9
$LUNITS
 70
     2
  9
$LUPREC
 70
     4
  9
$SKETCHINC
 40
1.0
  9
$FILLETRAD
 40
0.0
  9
$AUNITS
 70
     0
  9
$AUPREC
 70
     0
  9
$MENU
  1
acad
  9
$ELEVATION
 40
0.0
  9
$PELEVATION
 40
0.0
  9
$THICKNESS
 40
0.0
  9
$LIMCHECK
 70
     0
  9
$CHAMFERA
 40
10.0
  9
$CHAMFERB
 40
10.0
  9
$CHAMFERC
 40
0.0
  9
$CHAMFERD
 40
0.0
  9
$SKPOLY
 70
     0
  9
$TDCREATE
 40
2454888.726330672
  9
$TDUCREATE
 40
2454888.642997338
  9
$TDUPDATE
 40
2455398.459822905
  9
$TDUUPDATE
 40
2455398.376489572
  9
$TDINDWG
 40
0.0700289815
  9
$TDUSRTIMER
 40
0.0700289815
  9
$USRTIMER
 70
     1
  9
$ANGBASE
 50
0.0
  9
$ANGDIR
 70
     0
  9
$PDMODE
 70
    98
  9
$PDSIZE
 40
0.0
  9
$PLINEWID
 40
0.0
  9
$SPLFRAME
 70
     0
  9
$SPLINETYPE
 70
     6
  9
$SPLINESEGS
 70
     8
  9
$HANDSEED
  5
556E
  9
$SURFTAB1
 70
     6
  9
$SURFTAB2
 70
     6
  9
$SURFTYPE
 70
     6
  9
$SURFU
 70
     6
  9
$SURFV
 70
     6
  9
$UCSBASE
  2

  9
$UCSNAME
  2

  9
$UCSORG
 10
0.0
 20
0.0
 30
0.0
  9
$UCSXDIR
 10
1.0
 20
0.0
 30
0.0
  9
$UCSYDIR
 10
0.0
 20
1.0
 30
0.0
  9
$UCSORTHOREF
  2

  9
$UCSORTHOVIEW
 70
     0
  9
$UCSORGTOP
 10
0.0
 20
0.0
 30
0.0
  9
$UCSORGBOTTOM
 10
0.0
 20
0.0
 30
0.0
  9
$UCSORGLEFT
 10
0.0
 20
0.0
 30
0.0
  9
$UCSORGRIGHT
 10
0.0
 20
0.0
 30
0.0
  9
$UCSORGFRONT
 10
0.0
 20
0.0
 30
0.0
  9
$UCSORGBACK
 10
0.0
 20
0.0
 30
0.0
  9
$PUCSBASE
  2

  9
$PUCSNAME
  2

  9
$PUCSORG
 10
0.0
 20
0.0
 30
0.0
  9
$PUCSXDIR
 10
1.0
 20
0.0
 30
0.0
  9
$PUCSYDIR
 10
0.0
 20
1.0
 30
0.0
  9
$PUCSORTHOREF
  2

  9
$PUCSORTHOVIEW
 70
     0
  9
$PUCSORGTOP
 10
0.0
 20
0.0
 30
0.0
  9
$PUCSORGBOTTOM
 10
0.0
 20
0.0
 30
0.0
  9
$PUCSORGLEFT
 10
0.0
 20
0.0
 30
0.0
  9
$PUCSORGRIGHT
 10
0.0
 20
0.0
 30
0.0
  9
$PUCSORGFRONT
 10
0.0
 20
0.0
 30
0.0
  9
$PUCSORGBACK
 10
0.0
 20
0.0
 30
0.0
  9
$USERI1
 70
     0
  9
$USERI2
 70
     0
  9
$USERI3
 70
     0
  9
$USERI4
 70
     0
  9
$USERI5
 70
     0
  9
$USERR1
 40
0.0
  9
$USERR2
 40
0.0
  9
$USERR3
 40
0.0
  9
$USERR4
 40
0.0
  9
$USERR5
 40
0.0
  9
$WORLDVIEW
 70
     1
  9
$SHADEDGE
 70
     3
  9
$SHADEDIF
 70
    70
  9
$TILEMODE
 70
     1
  9
$MAXACTVP
 70
    16
  9
$PINSBASE
 10
0.0
 20
0.0
 30
0.0
  9
$PLIMCHECK
 70
     0
  9
$PEXTMIN
 10
1.000000000000000E+20
 20
1.000000000000000E+20
 30
1.000000000000000E+20
  9
$PEXTMAX
 10
-1.000000000000000E+20
 20
-1.000000000000000E+20
 30
-1.000000000000000E+20
  9
$PLIMMIN
 10
0.0
 20
0.0
  9
$PLIMMAX
 10
420.0
 20
297.0
  9
$UNITMODE
 70
     0
  9
$VISRETAIN
 70
     0
  9
$PLINEGEN
 70
     0
  9
$PSLTSCALE
 70
     1
  9
$TREEDEPTH
 70
  3020
  9
$CMLSTYLE
  2
Standard
  9
$CMLJUST
 70
     0
  9
$CMLSCALE
 40
1.0
  9
$PROXYGRAPHICS
 70
     1
  9
$MEASUREMENT
 70
     0
  9
$CELWEIGHT
370
    -1
  9
$ENDCAPS
280
     0
  9
$JOINSTYLE
280
     0
  9
$LWDISPLAY
290
     0
  9
$INSUNITS
 70
     0
  9
$HYPERLINKBASE
  1

  9
$STYLESHEET
  1

  9
$XEDIT
290
     1
  9
$CEPSNTYPE
380
     0
  9
$PSTYLEMODE
290
     1
  9
$FINGERPRINTGUID
  2
{8C4B330B-5BC4-4EAF-9DE2-6CD8012EAADE}
  9
$VERSIONGUID
  2
{5823EB8B-20AE-4402-ADFC-FD4096492EB9}
  9
$EXTNAMES
290
     1
  9
$PSVPSCALE
 40
0.0
  9
$OLESTARTUP
290
     0
  9
$SORTENTS
280
   127
  9
$INDEXCTL
280
     0
  9
$HIDETEXT
280
     1
  9
$XCLIPFRAME
290
     0
  9
$HALOGAP
280
     0
  9
$OBSCOLOR
 70
   257
  9
$OBSLTYPE
280
     0
  9
$INTERSECTIONDISPLAY
280
     0
  9
$INTERSECTIONCOLOR
 70
   257
  9
$DIMASSOC
280
     2
  9
$PROJECTNAME
  1

  0
ENDSEC
  0
SECTION
  2
CLASSES
  0
CLASS
  1
ACDBDICTIONARYWDFLT
  2
AcDbDictionaryWithDefault
  3
ObjectDBX Classes
 90
        0
 91
        1
280
     0
281
     0
  0
CLASS
  1
TABLESTYLE
  2
AcDbTableStyle
  3
ObjectDBX Classes
 90
     4095
 91
        1
280
     0
281
     0
  0
CLASS
  1
DICTIONARYVAR
  2
AcDbDictionaryVar
  3
ObjectDBX Classes
 90
        0
 91
        9
280
     0
281
     0
  0
CLASS
  1
DIMASSOC
  2
AcDbDimAssoc
  3
"AcDbDimAssoc|Product Desc:     AcDim ARX App For Dimension|Company:          Autodesk, Inc.|WEB Address:      www.autodesk.com"
 90
        0
 91
        0
280
     0
281
     0
  0
CLASS
  1
SORTENTSTABLE
  2
AcDbSortentsTable
  3
ObjectDBX Classes
 90
        0
 91
        1
280
     0
281
     0
  0
CLASS
  1
MATERIAL
  2
AcDbMaterial
  3
ObjectDBX Classes
 90
     1153
 91
        3
280
     0
281
     0
  0
CLASS
  1
VISUALSTYLE
  2
AcDbVisualStyle
  3
ObjectDBX Classes
 90
     4095
 91
       16
280
     0
281
     0
  0
CLASS
  1
SCALE
  2
AcDbScale
  3
ObjectDBX Classes
 90
     1153
 91
       33
280
     0
281
     0
  0
CLASS
  1
MLEADERSTYLE
  2
AcDbMLeaderStyle
  3
ACDB_MLEADERSTYLE_CLASS
 90
     4095
 91
        1
280
     0
281
     0
  0
CLASS
  1
CELLSTYLEMAP
  2
AcDbCellStyleMap
  3
ObjectDBX Classes
 90
     1152
 91
        3
280
     0
281
     0
  0
ENDSEC
  0
SECTION
  2
TABLES
  0
TABLE
  2
VPORT
  5
8
330
0
100
AcDbSymbolTable
 70
     1
  0
VPORT
  5
51BB
330
8
100
AcDbSymbolTableRecord
100
AcDbViewportTableRecord
  2
*Active
 70
     0
 10
0.0
 20
0.0
 11
1.0
 21
1.0
 12
-11247.56380408181
 22
-4123.575808995296
 13
0.0
 23
0.0
 14
10.0
 24
10.0
 15
10.0
 25
10.0
 16
0.0
 26
0.0
 36
1.0
 17
0.0
 27
0.0
 37
0.0
 40
3588.428630028654
 41
1.797421731123388
 42
50.0
 43
0.0
 44
0.0
 50
0.0
 51
0.0
 71
     0
 72
   100
 73
     1
 74
     0
 75
     0
 76
     0
 77
     0
 78
     0
281
     0
 65
     1
110
0.0
120
0.0
130
0.0
111
1.0
121
0.0
131
0.0
112
0.0
122
1.0
132
0.0
 79
     0
146
0.0
  0
ENDTAB
  0
TABLE
  2
LTYPE
  5
5
330
0
100
AcDbSymbolTable
 70
     1
  0
LTYPE
  5
13
330
5
100
AcDbSymbolTableRecord
100
AcDbLinetypeTableRecord
  2
ByBlock
 70
     0
  3

 72
    65
 73
     0
 40
0.0
  0
LTYPE
  5
14
330
5
100
AcDbSymbolTableRecord
100
AcDbLinetypeTableRecord
  2
ByLayer
 70
     0
  3

 72
    65
 73
     0
 40
0.0
  0
LTYPE
  5
15
330
5
100
AcDbSymbolTableRecord
100
AcDbLinetypeTableRecord
  2
CONTINUOUS
 70
     0
  3
Solid line
 72
    65
 73
     0
 40
0.0
  0
ENDTAB
  0
TABLE
  2
LAYER
  5
2
330
0
100
AcDbSymbolTable
 70
     6
  0
LAYER
  5
10
102
{ACAD_XDICTIONARY
360
520E
102
}
330
2
100
AcDbSymbolTableRecord
100
AcDbLayerTableRecord
  2
0
 70
     0
 62
     7
  6
CONTINUOUS
370
    -3
390
F
  0
LAYER
  5
31
102
{ACAD_XDICTIONARY
360
5210
102
}
330
2
100
AcDbSymbolTableRecord
100
AcDbLayerTableRecord
  2
CORTE
 70
     0
 62
     1
  6
CONTINUOUS
370
    -3
390
F
  0
LAYER
  5
32
102
{ACAD_XDICTIONARY
360
5212
102
}
330
2
100
AcDbSymbolTableRecord
100
AcDbLayerTableRecord
  2
CORTE1
 70
     0
 62
     5
  6
CONTINUOUS
370
    -3
390
F
  0
LAYER
  5
33
102
{ACAD_XDICTIONARY
360
5214
102
}
330
2
100
AcDbSymbolTableRecord
100
AcDbLayerTableRecord
  2
DIBU
 70
     0
 62
     7
  6
CONTINUOUS
370
    -3
390
F
  0
LAYER
  5
34
102
{ACAD_XDICTIONARY
360
5216
102
}
330
2
100
AcDbSymbolTableRecord
100
AcDbLayerTableRecord
  2
AUX
 70
     0
 62
     7
  6
CONTINUOUS
370
    -3
390
F
  0
LAYER
  5
35
330
2
100
AcDbSymbolTableRecord
100
AcDbLayerTableRecord
  2
DEFPOINTS
 70
     0
 62
     7
  6
CONTINUOUS
290
     0
370
    -3
390
F
  0
ENDTAB
  0
TABLE
  2
STYLE
  5
3
330
0
100
AcDbSymbolTable
 70
     1
  0
STYLE
  5
11
330
3
100
AcDbSymbolTableRecord
100
AcDbTextStyleTableRecord
  2
STANDARD
 70
     0
 40
0.0
 41
1.0
 50
0.0
 71
     0
 42
40.0
  3
ARIALUNI.TTF
  4

1001
ACAD
1000
@Arial Unicode MS
1071
       34
  0
ENDTAB
  0
TABLE
  2
VIEW
  5
6
330
0
100
AcDbSymbolTable
 70
     0
  0
ENDTAB
  0
TABLE
  2
UCS
  5
7
330
0
100
AcDbSymbolTable
 70
     0
  0
ENDTAB
  0
TABLE
  2
APPID
  5
9
330
0
100
AcDbSymbolTable
 70
     7
  0
APPID
  5
12
330
9
100
AcDbSymbolTableRecord
100
AcDbRegAppTableRecord
  2
ACAD
 70
     0
  0
APPID
  5
4B8D
330
9
100
AcDbSymbolTableRecord
100
AcDbRegAppTableRecord
  2
ACAD_PSEXT
 70
     0
  0
APPID
  5
520A
330
9
100
AcDbSymbolTableRecord
100
AcDbRegAppTableRecord
  2
ACAD_MLEADERVER
 70
     0
  0
APPID
  5
5220
330
9
100
AcDbSymbolTableRecord
100
AcDbRegAppTableRecord
  2
ACAD_EXEMPT_FROM_CAD_STANDARDS
 70
     0
  0
APPID
  5
52CA
330
9
100
AcDbSymbolTableRecord
100
AcDbRegAppTableRecord
  2
AcadAnnoPO
 70
     0
  0
APPID
  5
52CC
330
9
100
AcDbSymbolTableRecord
100
AcDbRegAppTableRecord
  2
ACAD_DSTYLE_DIMJAG
 70
     0
  0
APPID
  5
52CD
330
9
100
AcDbSymbolTableRecord
100
AcDbRegAppTableRecord
  2
ACAD_DSTYLE_DIMTALN
 70
     0
  0
ENDTAB
  0
TABLE
  2
DIMSTYLE
  5
A
330
0
100
AcDbSymbolTable
 70
     1
100
AcDbDimStyleTable
 71
     1
340
4AF2
  0
DIMSTYLE
105
4AF2
330
A
100
AcDbSymbolTableRecord
100
AcDbDimStyleTableRecord
  2
Standard
 70
     0
340
11
  0
ENDTAB
  0
TABLE
  2
BLOCK_RECORD
  5
1
330
0
100
AcDbSymbolTable
 70
     0
  0
BLOCK_RECORD
  5
22
102
{ACAD_XDICTIONARY
360
512A
102
}
330
1
100
AcDbSymbolTableRecord
100
AcDbBlockTableRecord
  2
*Model_Space
340
25
  0
BLOCK_RECORD
  5
1E
330
1
100
AcDbSymbolTableRecord
100
AcDbBlockTableRecord
  2
*Paper_Space
340
21
  0
ENDTAB
  0
ENDSEC
  0
SECTION
  2
BLOCKS
  0
BLOCK
  5
38
330
22
100
AcDbEntity
  8
0
100
AcDbBlockBegin
  2
*Model_Space
 70
     0
 10
0.0
 20
0.0
 30
0.0
  3
*Model_Space
  1

  0
ENDBLK
  5
39
330
22
100
AcDbEntity
  8
0
100
AcDbBlockEnd
  0
BLOCK
  5
36
330
1E
100
AcDbEntity
 67
     1
  8
0
100
AcDbBlockBegin
  2
*Paper_Space
 70
     0
 10
0.0
 20
0.0
 30
0.0
  3
*Paper_Space
  1

  0
ENDBLK
  5
37
330
1E
100
AcDbEntity
 67
     1
  8
0
100
AcDbBlockEnd
  0
ENDSEC
  0
SECTION
  2
ENTITIES
  0
LINE
  5
55A
330
22
100
AcDbEntity
  8
DIBU
100
AcDbLine
 10
-13551.31506
 20
-3075.095368
 30
0.0
 11
-13551.31506
 21
-3175.695357
 31
0.0
  0
LINE
  5
A3C
330
22
100
AcDbEntity
  8
DIBU
100
AcDbLine
 10
-13551.31506
 20
-2974.495372
 30
0.0
 11
-13551.31506
 21
-3075.095357
 31
0.0
  0
LINE
  5
A3D
330
22
100
AcDbEntity
  8
DIBU
100
AcDbLine
 10
-13551.31506
 20
-3075.095357
 30
0.0
 11
-13551.31506
 21
-2874.495372000001
 31
0.0
  0
LINE
  5
B50
330
22
100
AcDbEntity
  8
DIBU
100
AcDbLine
 10
-13551.31506
 20
-3276.295354
 30
0.0
 11
-13551.31506
 21
-3175.695357
 31
0.0
  0
LINE
  5
1376
330
22
100
AcDbEntity
  8
DIBU
100
AcDbLine
 10
-13551.31506
 20
-3276.295354
 30
0.0
 11
-13551.31506
 21
-3376.89535
 31
0.0
  0
LINE
  5
1C12
330
22
100
AcDbEntity
  8
DIBU
100
AcDbLine
 10
-13551.31506
 20
-3376.89535
 30
0.0
 11
-13551.31506
 21
-3477.495339
 31
0.0
  0
LINE
  5
2207
330
22
100
AcDbEntity
  8
DIBU
100
AcDbLine
 10
-9486.314976
 20
-4181.695367
 30
0.0
 11
-9486.314976
 21
-2874.495372
 31
0.0
  0
LINE
  5
25C8
330
22
100
AcDbEntity
  8
DIBU
100
AcDbLine
 10
-13551.31506
 20
-3477.495354000001
 30
0.0
 11
-13551.31506
 21
-3578.095339
 31
0.0
  0
LINE
  5
25C9
330
22
100
AcDbEntity
  8
DIBU
100
AcDbLine
 10
-13551.31506
 20
-3578.095339
 30
0.0
 11
-13551.31506
 21
-3477.495354000001
 31
0.0
  0
LINE
  5
26DC
330
22
100
AcDbEntity
  8
DIBU
100
AcDbLine
 10
-13551.31506
 20
-3779.295335
 30
0.0
 11
-13551.31506
 21
-3678.695339
 31
0.0
  0
LINE
  5
2F02
330
22
100
AcDbEntity
  8
DIBU
100
AcDbLine
 10
-13551.31506
 20
-3779.295335
 30
0.0
 11
-13551.31506
 21
-3879.895331
 31
0.0
  0
LINE
  5
367F
330
22
100
AcDbEntity
  8
DIBU
100
AcDbLine
 10
-13551.31506
 20
-3879.895331
 30
0.0
 11
-13551.31506
 21
-3980.495382
 31
0.0
  0
LINE
  5
3ADD
330
22
100
AcDbEntity
  8
DIBU
100
AcDbLine
 10
-13551.31506
 20
-3578.095339
 30
0.0
 11
-13551.31506
 21
-3678.695389
 31
0.0
  0
LINE
  5
40DE
330
22
100
AcDbEntity
  8
DIBU
100
AcDbLine
 10
-13551.31506
 20
-3980.495382
 30
0.0
 11
-13551.31506
 21
-4081.095367
 31
0.0
  0
LINE
  5
40DF
330
22
100
AcDbEntity
  8
DIBU
100
AcDbLine
 10
-13551.31506
 20
-4081.095367
 30
0.0
 11
-13551.31506
 21
-3980.495382
 31
0.0
  0
LINE
  5
41EF
330
22
100
AcDbEntity
  8
DIBU
100
AcDbLine
 10
-13551.31506
 20
-4081.095377999999
 30
0.0
 11
-13551.31506
 21
-4181.695367
 31
0.0
  0
LINE
  5
41F0
330
22
100
AcDbEntity
  8
DIBU
100
AcDbLine
 10
-13551.31506
 20
-4181.695367
 30
0.0
 11
-9486.314976
 21
-4181.695367
 31
0.0
  0
LINE
  5
47E2
330
22
100
AcDbEntity
  8
AUX
100
AcDbLine
 10
-13551.31506
 20
-4231.695367
 30
0.0
 11
-13551.31506
 21
-4622.757867
 31
0.0
  0
LINE
  5
47E3
330
22
100
AcDbEntity
  8
AUX
100
AcDbLine
 10
-9486.314976
 20
-4231.695363
 30
0.0
 11
-9486.314976
 21
-4622.757867
 31
0.0
  0
LINE
  5
47E4
330
22
100
AcDbEntity
  8
AUX
100
AcDbLine
 10
-13551.31506
 20
-4572.757867
 30
0.0
 11
-9486.314976
 21
-4572.757867
 31
0.0
  0
LINE
  5
47E5
330
22
100
AcDbEntity
  8
AUX
100
AcDbLine
 10
-13451.31506
 20
-4589.427867
 30
0.0
 11
-13551.31506
 21
-4572.757867
 31
0.0
  0
LINE
  5
47E6
330
22
100
AcDbEntity
  8
AUX
100
AcDbLine
 10
-13551.31506
 20
-4572.757867
 30
0.0
 11
-13451.31506
 21
-4556.087867
 31
0.0
  0
LINE
  5
47E7
330
22
100
AcDbEntity
  8
AUX
100
AcDbLine
 10
-13451.31506
 20
-4556.087867
 30
0.0
 11
-13451.31506
 21
-4589.427867
 31
0.0
  0
LINE
  5
47E8
330
22
100
AcDbEntity
  8
AUX
100
AcDbLine
 10
-9586.314976
 20
-4556.087867
 30
0.0
 11
-9486.314976
 21
-4572.757867
 31
0.0
  0
LINE
  5
47E9
330
22
100
AcDbEntity
  8
AUX
100
AcDbLine
 10
-9486.314976
 20
-4572.757867
 30
0.0
 11
-9586.314976
 21
-4589.427867
 31
0.0
  0
LINE
  5
47EA
330
22
100
AcDbEntity
  8
AUX
100
AcDbLine
 10
-9586.314976
 20
-4589.427867
 30
0.0
 11
-9586.314976
 21
-4556.087867
 31
0.0
  0
LINE
  5
47EB
330
22
100
AcDbEntity
  8
AUX
100
AcDbLine
 10
-9436.314976
 20
-2874.495380000001
 30
0.0
 11
-8943.748538306616
 21
-2874.495380000001
 31
0.0
  0
LINE
  5
47EC
330
22
100
AcDbEntity
  8
AUX
100
AcDbLine
 10
-9436.314976
 20
-4181.695363
 30
0.0
 11
-8943.748538306616
 21
-4181.695363
 31
0.0
  0
LINE
  5
47ED
330
22
100
AcDbEntity
  8
AUX
100
AcDbLine
 10
-8998.277393599748
 20
-2874.495380000001
 30
0.0
 11
-8998.277393599748
 21
-4181.695363
 31
0.0
  0
LINE
  5
47EE
330
22
100
AcDbEntity
  8
AUX
100
AcDbLine
 10
-9014.947393599749
 20
-2974.49538
 30
0.0
 11
-8998.277393599748
 21
-2874.495380000001
 31
0.0
  0
LINE
  5
47EF
330
22
100
AcDbEntity
  8
AUX
100
AcDbLine
 10
-8998.277393599748
 20
-2874.495380000001
 30
0.0
 11
-8981.607393599748
 21
-2974.49538
 31
0.0
  0
LINE
  5
47F0
330
22
100
AcDbEntity
  8
AUX
100
AcDbLine
 10
-8981.607393599748
 20
-2974.49538
 30
0.0
 11
-9014.947393599749
 21
-2974.49538
 31
0.0
  0
LINE
  5
47F1
330
22
100
AcDbEntity
  8
AUX
100
AcDbLine
 10
-8981.607393599748
 20
-4081.695363
 30
0.0
 11
-8998.277393599748
 21
-4181.695363
 31
0.0
  0
LINE
  5
47F2
330
22
100
AcDbEntity
  8
AUX
100
AcDbLine
 10
-8998.277393599748
 20
-4181.695363
 30
0.0
 11
-9014.947393599749
 21
-4081.695363
 31
0.0
  0
LINE
  5
47F3
330
22
100
AcDbEntity
  8
AUX
100
AcDbLine
 10
-9014.947393599749
 20
-4081.695363
 30
0.0
 11
-8981.607393599748
 21
-4081.695363
 31
0.0
  0
LINE
  5
47FC
330
22
100
AcDbEntity
  8
AUX
100
AcDbLine
 10
-9436.314976
 20
-2990.028737000001
 30
0.0
 11
-9299.042889
 21
-2990.028737000001
 31
0.0
  0
LINE
  5
47FD
330
22
100
AcDbEntity
  8
AUX
100
AcDbLine
 10
-9349.042889000001
 20
-2874.495380000001
 30
0.0
 11
-9349.042889000001
 21
-2349.569114
 31
0.0
  0
LINE
  5
47FE
330
22
100
AcDbEntity
  8
AUX
100
AcDbLine
 10
-9332.372889
 20
-2774.495380000001
 30
0.0
 11
-9349.042889000001
 21
-2874.495380000001
 31
0.0
  0
LINE
  5
47FF
330
22
100
AcDbEntity
  8
AUX
100
AcDbLine
 10
-9349.042889000001
 20
-2874.495380000001
 30
0.0
 11
-9365.712889
 21
-2774.495380000001
 31
0.0
  0
LINE
  5
4800
330
22
100
AcDbEntity
  8
AUX
100
AcDbLine
 10
-9365.712889
 20
-2774.495380000001
 30
0.0
 11
-9332.372889
 21
-2774.495380000001
 31
0.0
  0
LINE
  5
4801
330
22
100
AcDbEntity
  8
AUX
100
AcDbLine
 10
-9349.042889000001
 20
-2990.028737000001
 30
0.0
 11
-9349.042889000001
 21
-3190.028737000001
 31
0.0
  0
LINE
  5
4802
330
22
100
AcDbEntity
  8
AUX
100
AcDbLine
 10
-9365.712889
 20
-3090.028737000001
 30
0.0
 11
-9349.042889000001
 21
-2990.028737000001
 31
0.0
  0
LINE
  5
4803
330
22
100
AcDbEntity
  8
AUX
100
AcDbLine
 10
-9349.042889000001
 20
-2990.028737000001
 30
0.0
 11
-9332.372889
 21
-3090.028737000001
 31
0.0
  0
LINE
  5
4804
330
22
100
AcDbEntity
  8
AUX
100
AcDbLine
 10
-9332.372889
 20
-3090.028737000001
 30
0.0
 11
-9365.712889
 21
-3090.028737000001
 31
0.0
  0
TEXT
  5
4815
330
22
100
AcDbEntity
  8
AUX
100
AcDbText
 10
-13690.399614
 20
-2349.381088
 30
0.0
 40
150.0
  1

100
AcDbText
  0
TEXT
  5
4816
330
22
100
AcDbEntity
  8
AUX
100
AcDbText
 10
-11702.206627
 20
-4532.308311082107
 30
0.0
 40
100.0
  1
4000
100
AcDbText
  0
TEXT
  5
4817
330
22
100
AcDbEntity
  8
AUX
100
AcDbText
 10
-9045.570364280534
 20
-3670.488188461062
 30
0.0
 40
100.0
  1
1285
 50
90.0
100
AcDbText
  0
TEXT
  5
4819
330
22
100
AcDbEntity
  8
AUX
100
AcDbText
 10
-9389.512601450279
 20
-2708.799884
 30
0.0
 40
100.0
  1
107
 50
90.0
100
AcDbText
  0
TEXT
  5
481C
330
22
100
AcDbEntity
  8
AUX
100
AcDbText
 10
-13366.623453
 20
-5131.436068
 30
0.0
 40
70.0
  1

100
AcDbText
  0
TEXT
  5
481E
330
22
100
AcDbEntity
  8
AUX
100
AcDbText
 10
-13366.623453
 20
-5341.436068
 30
0.0
 40
70.0
  1

100
AcDbText
  0
TEXT
  5
4824
330
22
100
AcDbEntity
  8
AUX
100
AcDbText
 10
-13366.623453
 20
-5971.436068
 30
0.0
 40
70.0
  1

100
AcDbText
  0
LINE
  5
5226
330
22
100
AcDbEntity
  8
0
100
AcDbLine
 10
-12292.65839500387
 20
-5446.18677908869
 30
0.0
 11
-12292.65839500387
 21
-5262.307149760678
 31
0.0
  0
LINE
  5
5232
330
22
100
AcDbEntity
  8
0
100
AcDbLine
 10
-10292.65839500387
 20
-5446.18677908869
 30
0.0
 11
-10292.65839500387
 21
-5262.307149760678
 31
0.0
  0
LINE
  5
52CE
330
22
100
AcDbEntity
  8
DIBU
100
AcDbLine
 10
-9486.314976
 20
-2874.495372
 30
0.0
 11
-13551.31506
 21
-2874.495372000001
 31
0.0
  0
LINE
  5
5330
330
22
100
AcDbEntity
  8
0
100
AcDbLine
 10
-12292.65839500387
 20
-5596.174575880294
 30
0.0
 11
-12292.65839500387
 21
-5885.838525566873
 31
0.0
  0
LINE
  5
5331
330
22
100
AcDbEntity
  8
0
100
AcDbLine
 10
-10292.65839500387
 20
-5596.174575880294
 30
0.0
 11
-10292.65839500387
 21
-5885.838525566873
 31
0.0
  0
LINE
  5
5332
330
22
100
AcDbEntity
  8
0
100
AcDbLine
 10
-12212.65839500387
 20
-5884.588525566872
 30
0.0
 11
-10372.65839500387
 21
-5884.588525566872
 31
0.0
  0
SOLID
  5
5333
330
22
100
AcDbEntity
  8
0
100
AcDbTrace
 10
-12212.65839500387
 20
-5871.25519223354
 30
0.0
 11
-12212.65839500387
 21
-5897.921858900206
 31
0.0
 12
-12292.65839500387
 22
-5884.588525566872
 32
0.0
 13
-12292.65839500387
 23
-5884.588525566872
 33
0.0
  0
SOLID
  5
5334
330
22
100
AcDbEntity
  8
0
100
AcDbTrace
 10
-10372.65839500387
 20
-5871.25519223354
 30
0.0
 11
-10372.65839500387
 21
-5897.921858900206
 31
0.0
 12
-10292.65839500387
 22
-5884.588525566872
 32
0.0
 13
-10292.65839500387
 23
-5884.588525566872
 33
0.0
  0
MTEXT
  5
5335
330
22
100
AcDbEntity
  8
0
100
AcDbMText
 10
-11313.99320500389
 20
-5787.159699568885
 30
0.0
 40
100.0
 41
0.0
 71
     5
 72
     1
  1
\A1;107
 73
     1
 44
1.0
  0
LINE
  5
5371
330
22
100
AcDbEntity
  8
0
100
AcDbLine
 10
-12807.87316858329
 20
-5332.157695061855
 30
0.0
 11
-12974.48203522595
 21
-5332.157695061853
 31
0.0
  0
LINE
  5
5372
330
22
100
AcDbEntity
  8
0
100
AcDbLine
 10
-12807.87316858329
 20
-5267.561369684641
 30
0.0
 11
-12974.48203522595
 21
-5267.56136968464
 31
0.0
  0
LINE
  5
5373
330
22
100
AcDbEntity
  8
0
100
AcDbLine
 10
-12973.23203522595
 20
-5412.157695061853
 30
0.0
 11
-12973.23203522595
 21
-5492.157695061854
 31
0.0
  0
LINE
  5
5374
330
22
100
AcDbEntity
  8
0
100
AcDbLine
 10
-12973.23203522595
 20
-5187.56136968464
 30
0.0
 11
-12973.23203522595
 21
-5107.56136968464
 31
0.0
  0
MTEXT
  5
5375
330
22
100
AcDbEntity
  8
0
100
AcDbMText
 10
-13053.04285965942
 20
-5135.721300909843
 30
0.0
 40
100.0
 41
0.0
 71
     5
 72
     1
  1
\A1;3
 11
0.0000000000000001
 21
1.0
 31
0.0
 73
     1
 44
1.0
  0
LINE
  5
5376
330
22
100
AcDbEntity
  8
0
100
AcDbLine
 10
-12973.23203522595
 20
-5412.157695061853
 30
0.0
 11
-12973.23203522595
 21
-5267.56136968464
 31
0.0
  0
SOLID
  5
5377
330
22
100
AcDbEntity
  8
0
100
AcDbTrace
 10
-12986.56536855929
 20
-5412.157695061853
 30
0.0
 11
-12959.89870189262
 21
-5412.157695061853
 31
0.0
 12
-12973.23203522595
 22
-5332.157695061853
 32
0.0
 13
-12973.23203522595
 23
-5332.157695061853
 33
0.0
  0
SOLID
  5
5378
330
22
100
AcDbEntity
  8
0
100
AcDbTrace
 10
-12986.56536855929
 20
-5187.56136968464
 30
0.0
 11
-12959.89870189262
 21
-5187.56136968464
 31
0.0
 12
-12973.23203522595
 22
-5267.56136968464
 32
0.0
 13
-12973.23203522595
 23
-5267.56136968464
 33
0.0
  0
LINE
  5
5388
330
22
100
AcDbEntity
  8
DIBU
100
AcDbLine
 10
-13551.31506
 20
-4073.362037
 30
0.0
 11
-9486.314976
 21
-4073.362037
 31
0.0
  0
LINE
  5
5389
330
22
100
AcDbEntity
  8
DIBU
100
AcDbLine
 10
-13551.31506
 20
-3965.028707
 30
0.0
 11
-9486.314976
 21
-3965.028707
 31
0.0
  0
LINE
  5
538A
330
22
100
AcDbEntity
  8
DIBU
100
AcDbLine
 10
-13551.31506
 20
-3856.695377000001
 30
0.0
 11
-9486.314976
 21
-3856.695377000001
 31
0.0
  0
LINE
  5
538B
330
22
100
AcDbEntity
  8
DIBU
100
AcDbLine
 10
-13551.31506
 20
-3748.362047
 30
0.0
 11
-9486.314976
 21
-3748.362047
 31
0.0
  0
LINE
  5
538C
330
22
100
AcDbEntity
  8
DIBU
100
AcDbLine
 10
-13551.31506
 20
-3640.028717000001
 30
0.0
 11
-9486.314976
 21
-3640.028717000001
 31
0.0
  0
LINE
  5
538D
330
22
100
AcDbEntity
  8
DIBU
100
AcDbLine
 10
-13551.31506
 20
-3531.695387000001
 30
0.0
 11
-9486.314976
 21
-3531.695387000001
 31
0.0
  0
LINE
  5
538E
330
22
100
AcDbEntity
  8
DIBU
100
AcDbLine
 10
-13551.31506
 20
-3423.362057000001
 30
0.0
 11
-9486.314976
 21
-3423.362057000001
 31
0.0
  0
LINE
  5
538F
330
22
100
AcDbEntity
  8
DIBU
100
AcDbLine
 10
-13551.31506
 20
-3315.028727000001
 30
0.0
 11
-9486.314976
 21
-3315.028727000001
 31
0.0
  0
LINE
  5
5390
330
22
100
AcDbEntity
  8
DIBU
100
AcDbLine
 10
-13551.31506
 20
-3206.695397000001
 30
0.0
 11
-9486.314976
 21
-3206.695397000001
 31
0.0
  0
LINE
  5
5391
330
22
100
AcDbEntity
  8
DIBU
100
AcDbLine
 10
-13551.31506
 20
-3098.362067000001
 30
0.0
 11
-9486.314976
 21
-3098.362067000001
 31
0.0
  0
LINE
  5
5392
330
22
100
AcDbEntity
  8
DIBU
100
AcDbLine
 10
-13551.31506
 20
-2990.028737000001
 30
0.0
 11
-9486.314976
 21
-2990.028737000001
 31
0.0
  0
LINE
  5
539A
330
22
100
AcDbEntity
  8
0
100
AcDbLine
 10
-10362.65839500387
 20
-5342.307149760676
 30
0.0
 11
-10362.65839500387
 21
-5271.738269491886
 31
0.0
  0
LINE
  5
539B
330
22
100
AcDbEntity
  8
0
100
AcDbLine
 10
-10222.65839500387
 20
-5342.307149760677
 30
0.0
 11
-10222.65839500387
 21
-5267.96996080846
 31
0.0
  0
LINE
  5
539C
330
22
100
AcDbEntity
  8
0
100
AcDbLine
 10
-12362.65839500388
 20
-5342.307149760678
 30
0.0
 11
-12362.65839500388
 21
-5267.968350062515
 31
0.0
  0
LINE
  5
539D
330
22
100
AcDbEntity
  8
0
100
AcDbLine
 10
-12222.65839500388
 20
-5342.307149760678
 30
0.0
 11
-12222.65839500388
 21
-5267.958863839843
 31
0.0
  0
LINE
  5
53A0
330
22
100
AcDbEntity
  8
0
100
AcDbLine
 10
-12362.65839500388
 20
-5342.307149760678
 30
0.0
 11
-12222.65839500388
 21
-5342.307149760678
 31
0.0
  0
LINE
  5
53A1
330
22
100
AcDbEntity
  8
0
100
AcDbLine
 10
-10362.65839500387
 20
-5342.307149760676
 30
0.0
 11
-10222.65839500387
 21
-5342.307149760677
 31
0.0
  0
LINE
  5
54A1
330
22
100
AcDbEntity
  8
0
100
AcDbLine
 10
-9547.353699872829
 20
-5342.307149760681
 30
0.0
 11
-10180.57795717552
 21
-5342.307149760681
 31
0.0
  0
LINE
  5
54A2
330
22
100
AcDbEntity
  8
0
100
AcDbLine
 10
-9547.353699872829
 20
-5262.307149760679
 30
0.0
 11
-10184.85118268755
 21
-5262.307149760678
 31
0.0
  0
LINE
  5
54A3
330
22
100
AcDbEntity
  8
0
100
AcDbLine
 10
-9558.707466346941
 20
-5422.307149760681
 30
0.0
 11
-9558.707466346941
 21
-5502.307149760681
 31
0.0
  0
LINE
  5
54A4
330
22
100
AcDbEntity
  8
0
100
AcDbLine
 10
-9558.707466346941
 20
-5182.307149760678
 30
0.0
 11
-9558.707466346941
 21
-5102.307149760678
 31
0.0
  0
MTEXT
  5
54A5
330
22
100
AcDbEntity
  8
0
100
AcDbMText
 10
-9637.32683569613
 20
-5134.468828981424
 30
0.0
 40
100.0
 41
0.0
 71
     5
 72
     1
  1
\A1;4
 11
0.0000000000000001
 21
1.0
 31
0.0
 73
     1
 44
1.0
  0
LINE
  5
54A6
330
22
100
AcDbEntity
  8
0
100
AcDbLine
 10
-9558.707466346941
 20
-5342.307149760681
 30
0.0
 11
-9558.707466346941
 21
-5262.307149760678
 31
0.0
  0
SOLID
  5
54A7
330
22
100
AcDbEntity
  8
0
100
AcDbTrace
 10
-9572.040799680275
 20
-5422.307149760681
 30
0.0
 11
-9545.374133013607
 21
-5422.307149760681
 31
0.0
 12
-9558.707466346941
 22
-5342.307149760681
 32
0.0
 13
-9558.707466346941
 23
-5342.307149760681
 33
0.0
  0
SOLID
  5
54A8
330
22
100
AcDbEntity
  8
0
100
AcDbTrace
 10
-9572.040799680275
 20
-5182.307149760678
 30
0.0
 11
-9545.374133013607
 21
-5182.307149760678
 31
0.0
 12
-9558.707466346941
 22
-5262.307149760678
 32
0.0
 13
-9558.707466346941
 23
-5262.307149760678
 33
0.0
  0
POLYLINE
  5
54AA
330
22
100
AcDbEntity
  8
0
100
AcDb2dPolyline
 66
     1
 10
0.0
 20
0.0
 30
0.0
 70
     2
  0
VERTEX
  5
54F6
330
54AA
100
AcDbEntity
  8
0
100
AcDbVertex
100
AcDb2dVertex
 10
-12362.65839500388
 20
-5267.968350062515
 30
0.0
 42
-0.1085670859701463
  0
VERTEX
  5
5500
330
54AA
100
AcDbEntity
  8
0
100
AcDbVertex
100
AcDb2dVertex
 10
-12386.21438943019
 20
-5294.224386301761
 30
0.0
 42
-0.147242499416303
 70
     1
  0
VERTEX
  5
54F7
330
54AA
100
AcDbEntity
  8
0
100
AcDbVertex
100
AcDb2dVertex
 10
-12411.05298481777
 20
-5302.75661526049
 30
0.0
 42
-0.1010217000900231
  0
VERTEX
  5
5501
330
54AA
100
AcDbEntity
  8
0
100
AcDbVertex
100
AcDb2dVertex
 10
-12435.366982047
 20
-5298.761311067704
 30
0.0
 42
0.1015349578418306
 70
     1
  0
VERTEX
  5
54F8
330
54AA
100
AcDbEntity
  8
0
100
AcDbVertex
100
AcDb2dVertex
 10
-12459.56458896531
 20
-5294.810378965738
 30
0.0
 42
0.1305051873005214
  0
VERTEX
  5
5502
330
54AA
100
AcDbEntity
  8
0
100
AcDbVertex
100
AcDb2dVertex
 10
-12492.34466625427
 20
-5304.952969574719
 30
0.0
 42
-0.1398137674600193
 70
     1
  0
VERTEX
  5
54F9
330
54AA
100
AcDbEntity
  8
0
100
AcDbVertex
100
AcDb2dVertex
 10
-12523.18638415021
 20
-5313.881349222161
 30
0.0
 42
-0.204700865406367
  0
VERTEX
  5
5503
330
54AA
100
AcDbEntity
  8
0
100
AcDbVertex
100
AcDb2dVertex
 10
-12543.8846991732
 20
-5305.133600334027
 30
0.0
 42
0.1952585573870651
 70
     1
  0
VERTEX
  5
54FA
330
54AA
100
AcDbEntity
  8
0
100
AcDbVertex
100
AcDb2dVertex
 10
-12565.33581302435
 20
-5295.605003382469
 30
0.0
 42
0.3798389339201483
  0
VERTEX
  5
5504
330
54AA
100
AcDbEntity
  8
0
100
AcDbVertex
100
AcDb2dVertex
 10
-12586.73457468862
 20
-5313.398118122925
 30
0.0
 42
-0.3668950666997572
 70
     1
  0
VERTEX
  5
54FB
330
54AA
100
AcDbEntity
  8
0
100
AcDbVertex
100
AcDb2dVertex
 10
-12608.28051734525
 20
-5332.157695061855
 30
0.0
 42
-0.284019305360244
  0
VERTEX
  5
5505
330
54AA
100
AcDbEntity
  8
0
100
AcDbVertex
100
AcDb2dVertex
 10
-12644.85919353143
 20
-5310.212495735912
 30
0.0
 42
0.2438826928889001
 70
     1
  0
VERTEX
  5
54FC
330
54AA
100
AcDbEntity
  8
0
100
AcDbVertex
100
AcDb2dVertex
 10
-12684.62664892663
 20
-5282.096396170604
 30
0.0
 42
0.0409190609242062
  0
VERTEX
  5
5507
330
54AA
100
AcDbEntity
  8
0
100
AcDbVertex
100
AcDb2dVertex
 10
-12704.48614472921
 20
-5280.999064543671
 30
0.0
 42
-0.0636779506851267
 70
     1
  0
VERTEX
  5
54FD
330
54AA
100
AcDbEntity
  8
0
100
AcDbVertex
100
AcDb2dVertex
 10
-12717.23281489068
 20
-5279.71253079297
 30
0.0
 42
-0.0641450266486447
  0
VERTEX
  5
5506
330
54AA
100
AcDbEntity
  8
0
100
AcDbVertex
100
AcDb2dVertex
 10
-12727.47222970423
 20
-5275.906369619359
 30
0.0
 42
-0.0455792705203339
 70
     1
  0
VERTEX
  5
54FE
330
54AA
100
AcDbEntity
  8
0
100
AcDbVertex
100
AcDb2dVertex
 10
-12740.34661738141
 20
-5267.561369684641
 30
0.0
  0
SEQEND
  5
54FF
330
54AA
100
AcDbEntity
  8
0
  0
POLYLINE
  5
54AB
330
22
100
AcDbEntity
  8
0
100
AcDb2dPolyline
 66
     1
 10
0.0
 20
0.0
 30
0.0
 70
     2
  0
VERTEX
  5
554B
330
54AB
100
AcDbEntity
  8
0
100
AcDbVertex
100
AcDb2dVertex
 10
-10222.65839500387
 20
-5267.96996080846
 30
0.0
 42
0.1855997309114121
  0
VERTEX
  5
5553
330
54AB
100
AcDbEntity
  8
0
100
AcDbVertex
100
AcDb2dVertex
 10
-10185.75866791941
 20
-5311.200617619014
 30
0.0
 42
0.1961693490544055
 70
     1
  0
VERTEX
  5
554C
330
54AB
100
AcDbEntity
  8
0
100
AcDbVertex
100
AcDb2dVertex
 10
-10132.09908781688
 20
-5317.116230142558
 30
0.0
 42
0.1885623287757119
  0
VERTEX
  5
5554
330
54AB
100
AcDbEntity
  8
0
100
AcDbVertex
100
AcDb2dVertex
 10
-10107.43448437132
 20
-5298.351798468901
 30
0.0
 42
-0.2076263542456439
 70
     1
  0
VERTEX
  5
554D
330
54AB
100
AcDbEntity
  8
0
100
AcDbVertex
100
AcDb2dVertex
 10
-10084.25673649894
 20
-5282.025157402008
 30
0.0
 42
-0.3108181191532087
  0
VERTEX
  5
5555
330
54AB
100
AcDbEntity
  8
0
100
AcDbVertex
100
AcDb2dVertex
 10
-10037.74693057082
 20
-5301.604789695851
 30
0.0
 42
0.2994864911903614
 70
     1
  0
VERTEX
  5
554E
330
54AB
100
AcDbEntity
  8
0
100
AcDbVertex
100
AcDb2dVertex
 10
-9990.210667493277
 20
-5322.787132130937
 30
0.0
 42
0.1322977294113137
  0
VERTEX
  5
5556
330
54AB
100
AcDbEntity
  8
0
100
AcDbVertex
100
AcDb2dVertex
 10
-9966.273669025195
 20
-5311.929215583447
 30
0.0
 42
-0.1589656075166705
 70
     1
  0
VERTEX
  5
554F
330
54AB
100
AcDbEntity
  8
0
100
AcDbVertex
100
AcDb2dVertex
 10
-9945.752290886442
 20
-5303.884107133709
 30
0.0
 42
-0.2870138764800065
  0
VERTEX
  5
5558
330
54AB
100
AcDbEntity
  8
0
100
AcDbVertex
100
AcDb2dVertex
 10
-9921.440905768434
 20
-5317.186728065526
 30
0.0
 42
0.0798259496625793
 70
     1
  0
VERTEX
  5
5550
330
54AB
100
AcDbEntity
  8
0
100
AcDbVertex
100
AcDb2dVertex
 10
-9895.618382560774
 20
-5319.133864584321
 30
0.0
 42
-0.231314523579563
  0
VERTEX
  5
5557
330
54AB
100
AcDbEntity
  8
0
100
AcDbVertex
100
AcDb2dVertex
 10
-9862.129674630274
 20
-5314.699981785858
 30
0.0
 42
0.3379163779234319
 70
     1
  0
VERTEX
  5
5551
330
54AB
100
AcDbEntity
  8
0
100
AcDbVertex
100
AcDb2dVertex
 10
-9844.940829477295
 20
-5267.578215613459
 30
0.0
  0
SEQEND
  5
5552
330
54AB
100
AcDbEntity
  8
0
  0
POLYLINE
  5
5508
330
22
100
AcDbEntity
  8
0
100
AcDb2dPolyline
 66
     1
 10
0.0
 20
0.0
 30
0.0
  0
VERTEX
  5
5509
330
5508
100
AcDbEntity
  8
0
100
AcDbVertex
100
AcDb2dVertex
 10
-12222.65839500388
 20
-5267.958863839843
 30
0.0
  0
VERTEX
  5
550A
330
5508
100
AcDbEntity
  8
0
100
AcDbVertex
100
AcDb2dVertex
 10
-12168.07634145424
 20
-5298.928812707117
 30
0.0
  0
VERTEX
  5
550B
330
5508
100
AcDbEntity
  8
0
100
AcDbVertex
100
AcDb2dVertex
 10
-12131.10428280819
 20
-5294.311077781006
 30
0.0
  0
VERTEX
  5
550C
330
5508
100
AcDbEntity
  8
0
100
AcDbVertex
100
AcDb2dVertex
 10
-12080.26768448198
 20
-5312.782033230565
 30
0.0
  0
VERTEX
  5
550D
330
5508
100
AcDbEntity
  8
0
100
AcDbVertex
100
AcDb2dVertex
 10
-12050.22787445054
 20
-5292.00220638167
 30
0.0
  0
VERTEX
  5
550E
330
5508
100
AcDbEntity
  8
0
100
AcDbVertex
100
AcDb2dVertex
 10
-12013.25580165419
 20
-5285.075600056225
 30
0.0
  0
VERTEX
  5
550F
330
5508
100
AcDbEntity
  8
0
100
AcDbVertex
100
AcDb2dVertex
 10
-11948.55469194844
 20
-5322.017510955345
 30
0.0
  0
VERTEX
  5
5510
330
5508
100
AcDbEntity
  8
0
100
AcDbVertex
100
AcDb2dVertex
 10
-11909.27186018033
 20
-5308.164298304453
 30
0.0
  0
VERTEX
  5
5511
330
5508
100
AcDbEntity
  8
0
100
AcDbVertex
100
AcDb2dVertex
 10
-11874.61054635572
 20
-5282.766728656891
 30
0.0
  0
VERTEX
  5
5512
330
5508
100
AcDbEntity
  8
0
100
AcDbVertex
100
AcDb2dVertex
 10
-11819.15244423633
 20
-5268.913508133443
 30
0.0
  0
VERTEX
  5
5513
330
5508
100
AcDbEntity
  8
0
100
AcDbVertex
100
AcDb2dVertex
 10
-11770.62660488187
 20
-5289.693334982337
 30
0.0
  0
VERTEX
  5
5514
330
5508
100
AcDbEntity
  8
0
100
AcDbVertex
100
AcDb2dVertex
 10
-11705.92548102582
 20
-5282.766728656891
 30
0.0
  0
VERTEX
  5
5515
330
5508
100
AcDbEntity
  8
0
100
AcDbVertex
100
AcDb2dVertex
 10
-11662.02114546453
 20
-5303.546555505785
 30
0.0
  0
VERTEX
  5
5516
330
5508
100
AcDbEntity
  8
0
100
AcDbVertex
100
AcDb2dVertex
 10
-11634.29209440484
 20
-5319.708647428567
 30
0.0
  0
VERTEX
  5
5517
330
5508
100
AcDbEntity
  8
0
100
AcDbVertex
100
AcDb2dVertex
 10
-11592.6985178153
 20
-5294.311077781006
 30
0.0
  0
VERTEX
  5
5518
330
5508
100
AcDbEntity
  8
0
100
AcDbVertex
100
AcDb2dVertex
 10
-11553.4157001975
 20
-5282.766728656891
 30
0.0
  0
VERTEX
  5
5519
330
5508
100
AcDbEntity
  8
0
100
AcDbVertex
100
AcDb2dVertex
 10
-11502.5791018713
 20
-5264.295765334774
 30
0.0
  0
VERTEX
  5
551A
330
5508
100
AcDbEntity
  8
0
100
AcDbVertex
100
AcDb2dVertex
 10
-11460.98552528176
 20
-5289.693334982337
 30
0.0
  0
VERTEX
  5
551B
330
5508
100
AcDbEntity
  8
0
100
AcDbVertex
100
AcDb2dVertex
 10
-11435.5672190435
 20
-5308.164298304453
 30
0.0
  0
VERTEX
  5
551C
330
5508
100
AcDbEntity
  8
0
100
AcDbVertex
100
AcDb2dVertex
 10
-11393.97364245396
 20
-5305.855426905119
 30
0.0
  0
VERTEX
  5
551D
330
5508
100
AcDbEntity
  8
0
100
AcDbVertex
100
AcDb2dVertex
 10
-11370.86610933776
 20
-5294.311077781006
 30
0.0
  0
VERTEX
  5
551E
330
5508
100
AcDbEntity
  8
0
100
AcDbVertex
100
AcDb2dVertex
 10
-11324.65101480473
 20
-5303.546555505785
 30
0.0
  0
VERTEX
  5
551F
330
5508
100
AcDbEntity
  8
0
100
AcDbVertex
100
AcDb2dVertex
 10
-11280.74667924345
 20
-5280.457857257556
 30
0.0
  0
VERTEX
  5
5520
330
5508
100
AcDbEntity
  8
0
100
AcDbVertex
100
AcDb2dVertex
 10
-11248.39612439057
 20
-5261.986901807997
 30
0.0
  0
VERTEX
  5
5521
330
5508
100
AcDbEntity
  8
0
100
AcDbVertex
100
AcDb2dVertex
 10
-11190.62726329944
 20
-5303.546555505785
 30
0.0
  0
VERTEX
  5
5522
330
5508
100
AcDbEntity
  8
0
100
AcDbVertex
100
AcDb2dVertex
 10
-11130.54765738688
 20
-5303.546555505785
 30
0.0
  0
VERTEX
  5
5523
330
5508
100
AcDbEntity
  8
0
100
AcDbVertex
100
AcDb2dVertex
 10
-11084.33256285385
 20
-5317.399776029233
 30
0.0
  0
VERTEX
  5
5524
330
5508
100
AcDbEntity
  8
0
100
AcDbVertex
100
AcDb2dVertex
 10
-11042.73898626431
 20
-5294.311077781006
 30
0.0
  0
VERTEX
  5
5525
330
5508
100
AcDbEntity
  8
0
100
AcDbVertex
100
AcDb2dVertex
 10
-10998.83466485334
 20
-5273.531250932111
 30
0.0
  0
VERTEX
  5
5526
330
5508
100
AcDbEntity
  8
0
100
AcDbVertex
100
AcDb2dVertex
 10
-10947.99806652713
 20
-5266.604636734109
 30
0.0
  0
VERTEX
  5
5527
330
5508
100
AcDbEntity
  8
0
100
AcDbVertex
100
AcDb2dVertex
 10
-10897.16146820092
 20
-5296.619949180339
 30
0.0
  0
VERTEX
  5
5528
330
5508
100
AcDbEntity
  8
0
100
AcDbVertex
100
AcDb2dVertex
 10
-10853.25713263964
 20
-5312.782033230565
 30
0.0
  0
VERTEX
  5
5529
330
5508
100
AcDbEntity
  8
0
100
AcDbVertex
100
AcDb2dVertex
 10
-10804.73129328518
 20
-5278.148985858223
 30
0.0
  0
VERTEX
  5
552A
330
5508
100
AcDbEntity
  8
0
100
AcDbVertex
100
AcDb2dVertex
 10
-10763.13771669564
 20
-5264.295765334774
 30
0.0
  0
VERTEX
  5
552B
330
5508
100
AcDbEntity
  8
0
100
AcDbVertex
100
AcDb2dVertex
 10
-10703.05811078307
 20
-5287.384463583003
 30
0.0
  0
VERTEX
  5
552C
330
5508
100
AcDbEntity
  8
0
100
AcDbVertex
100
AcDb2dVertex
 10
-10663.77527901497
 20
-5312.782033230565
 30
0.0
  0
VERTEX
  5
552D
330
5508
100
AcDbEntity
  8
0
100
AcDbVertex
100
AcDb2dVertex
 10
-10633.73546898353
 20
-5285.075600056225
 30
0.0
  0
VERTEX
  5
552E
330
5508
100
AcDbEntity
  8
0
100
AcDbVertex
100
AcDb2dVertex
 10
-10589.83114757255
 20
-5282.766728656891
 30
0.0
  0
VERTEX
  5
552F
330
5508
100
AcDbEntity
  8
0
100
AcDbVertex
100
AcDb2dVertex
 10
-10559.79133754112
 20
-5266.604636734109
 30
0.0
  0
VERTEX
  5
5530
330
5508
100
AcDbEntity
  8
0
100
AcDbVertex
100
AcDb2dVertex
 10
-10508.95473921491
 20
-5289.693334982337
 30
0.0
  0
VERTEX
  5
5531
330
5508
100
AcDbEntity
  8
0
100
AcDbVertex
100
AcDb2dVertex
 10
-10488.15795092014
 20
-5305.855426905119
 30
0.0
  0
VERTEX
  5
5532
330
5508
100
AcDbEntity
  8
0
100
AcDbVertex
100
AcDb2dVertex
 10
-10455.80739606727
 20
-5289.693334982337
 30
0.0
  0
VERTEX
  5
5533
330
5508
100
AcDbEntity
  8
0
100
AcDbVertex
100
AcDb2dVertex
 10
-10400.34929394788
 20
-5280.457857257556
 30
0.0
  0
VERTEX
  5
5534
330
5508
100
AcDbEntity
  8
0
100
AcDbVertex
100
AcDb2dVertex
 10
-10362.65839500387
 20
-5271.738269491886
 30
0.0
  0
SEQEND
  5
5535
330
5508
100
AcDbEntity
  8
0
  0
ENDSEC
  0
SECTION
  2
OBJECTS
  0
DICTIONARY
  5
C
330
0
100
AcDbDictionary
281
     1
  3
ACAD_COLOR
350
1B
  3
ACAD_GROUP
350
D
  3
ACAD_LAYOUT
350
19
  3
ACAD_MATERIAL
350
1A
  3
ACAD_MLEADERSTYLE
350
5208
  3
ACAD_MLINESTYLE
350
16
  3
ACAD_PLOTSETTINGS
350
18
  3
ACAD_PLOTSTYLENAME
350
E
  3
ACAD_SCALELIST
350
51E6
  3
ACAD_TABLESTYLE
350
1C
  3
ACAD_VISUALSTYLE
350
51D5
  3
ACDB_RECOMPOSE_DATA
350
52C2
  3
AcDbVariableDictionary
350
4AF5
  0
DICTIONARY
  5
520E
330
10
100
AcDbDictionary
280
     1
281
     1
  3
ADSK_XREC_LAYER_RECONCILED
360
520F
  0
DICTIONARY
  5
5210
330
31
100
AcDbDictionary
280
     1
281
     1
  3
ADSK_XREC_LAYER_RECONCILED
360
5211
  0
DICTIONARY
  5
5212
330
32
100
AcDbDictionary
280
     1
281
     1
  3
ADSK_XREC_LAYER_RECONCILED
360
5213
  0
DICTIONARY
  5
5214
330
33
100
AcDbDictionary
280
     1
281
     1
  3
ADSK_XREC_LAYER_RECONCILED
360
5215
  0
DICTIONARY
  5
5216
330
34
100
AcDbDictionary
280
     1
281
     1
  3
ADSK_XREC_LAYER_RECONCILED
360
5217
  0
DICTIONARY
  5
512A
330
22
100
AcDbDictionary
280
     1
281
     1
  3
ACAD_SORTENTS
360
512B
  0
DICTIONARY
  5
1B
102
{ACAD_REACTORS
330
C
102
}
330
C
100
AcDbDictionary
281
     1
  0
DICTIONARY
  5
D
102
{ACAD_REACTORS
330
C
102
}
330
C
100
AcDbDictionary
281
     1
  0
DICTIONARY
  5
19
102
{ACAD_REACTORS
330
C
102
}
330
C
100
AcDbDictionary
281
     1
  3
Model
350
25
  3
Presentación1
350
21
  0
DICTIONARY
  5
1A
102
{ACAD_REACTORS
330
C
102
}
330
C
100
AcDbDictionary
281
     1
  3
ByBlock
350
51C5
  3
ByLayer
350
51BD
  3
Global
350
51CD
  0
DICTIONARY
  5
5208
102
{ACAD_REACTORS
330
C
102
}
330
C
100
AcDbDictionary
281
     1
  3
Standard
350
5209
  0
DICTIONARY
  5
16
102
{ACAD_REACTORS
330
C
102
}
330
C
100
AcDbDictionary
281
     1
  3
Standard
350
17
  0
DICTIONARY
  5
18
102
{ACAD_REACTORS
330
C
102
}
330
C
100
AcDbDictionary
281
     1
  0
ACDBDICTIONARYWDFLT
  5
E
102
{ACAD_REACTORS
330
C
102
}
330
C
100
AcDbDictionary
281
     1
  3
Normal
350
F
100
AcDbDictionaryWithDefault
340
F
  0
DICTIONARY
  5
51E6
102
{ACAD_REACTORS
330
C
102
}
330
C
100
AcDbDictionary
281
     1
  3
A0
350
51E7
  3
A1
350
51E8
  3
A2
350
51E9
  3
A3
350
51EA
  3
A4
350
51EB
  3
A5
350
51EC
  3
A6
350
51ED
  3
A7
350
51EE
  3
A8
350
51EF
  3
A9
350
51F0
  3
B0
350
51F1
  3
B1
350
51F2
  3
B2
350
51F3
  3
B3
350
51F4
  3
B4
350
51F5
  3
B5
350
51F6
  3
B6
350
51F7
  3
B7
350
51F8
  3
B8
350
51F9
  3
B9
350
51FA
  3
C0
350
51FB
  3
C1
350
51FC
  3
C2
350
51FD
  3
C3
350
51FE
  3
C4
350
51FF
  3
C5
350
5200
  3
C6
350
5201
  3
C7
350
5202
  3
C8
350
5203
  3
C9
350
5204
  3
D0
350
5205
  3
D1
350
5206
  3
D2
350
5207
  0
DICTIONARY
  5
1C
102
{ACAD_REACTORS
330
C
102
}
330
C
100
AcDbDictionary
281
     1
  3
Standard
350
1D
  0
DICTIONARY
  5
51D5
102
{ACAD_REACTORS
330
C
102
}
330
C
100
AcDbDictionary
281
     1
  3
2dWireframe
350
51DB
  3
3D Hidden
350
51DD
  3
3dWireframe
350
51DC
  3
Basic
350
51DA
  3
Brighten
350
51E1
  3
ColorChange
350
51E5
  3
Conceptual
350
51DE
  3
Dim
350
51E0
  3
Facepattern
350
51E4
  3
Flat
350
51D6
  3
FlatWithEdges
350
51D7
  3
Gouraud
350
51D8
  3
GouraudWithEdges
350
51D9
  3
Linepattern
350
51E3
  3
Realistic
350
51DF
  3
Thicken
350
51E2
  0
XRECORD
  5
52C2
102
{ACAD_REACTORS
330
C
102
}
330
C
100
AcDbXrecord
280
     1
 90
        1
330
1D
  0
DICTIONARY
  5
4AF5
102
{ACAD_REACTORS
330
C
102
}
330
C
100
AcDbDictionary
281
     1
  3
CANNOSCALE
350
5244
  3
CMLEADERSTYLE
350
5243
  3
CTABLESTYLE
350
4AF6
  3
DIMASSOC
350
5248
  3
HIDETEXT
350
5247
  3
INDEXCTL
350
5246
  3
LIGHTINGUNITS
350
52C4
  3
MSLTSCALE
350
52C3
  3
SORTENTS
350
5245
  0
XRECORD
  5
520F
102
{ACAD_REACTORS
330
520E
102
}
330
520E
100
AcDbXrecord
280
     1
290
     1
  0
XRECORD
  5
5211
102
{ACAD_REACTORS
330
5210
102
}
330
5210
100
AcDbXrecord
280
     1
290
     1
  0
XRECORD
  5
5213
102
{ACAD_REACTORS
330
5212
102
}
330
5212
100
AcDbXrecord
280
     1
290
     1
  0
XRECORD
  5
5215
102
{ACAD_REACTORS
330
5214
102
}
330
5214
100
AcDbXrecord
280
     1
290
     1
  0
XRECORD
  5
5217
102
{ACAD_REACTORS
330
5216
102
}
330
5216
100
AcDbXrecord
280
     1
290
     1
  0
SORTENTSTABLE
  5
512B
102
{ACAD_REACTORS
330
512A
102
}
330
512A
100
AcDbSortentsTable
330
22
331
538A
  5
47E5
331
47F3
  5
4817
331
4819
  5
5332
331
47F0
  5
4804
331
481C
  5
5333
331
2207
  5
25C2
331
54A6
  5
54A6
331
538D
  5
47E8
331
5332
  5
5390
331
47FC
  5
4819
331
5390
  5
47EB
331
47FF
  5
4824
331
5508
  5
54DA
331
5373
  5
539C
331
47E4
  5
47F0
331
4802
  5
4F4D
331
5335
  5
5399
331
47E7
  5
47F3
331
5376
  5
53A1
331
47EA
  5
47FE
331
539C
  5
538A
331
4816
  5
5330
331
40DF
  5
41EF
331
47ED
  5
4801
331
55A
  5
55A
331
41F0
  5
41F2
331
54A3
  5
54A3
331
5388
  5
47E3
331
54A1
  5
54A1
331
47F1
  5
4815
331
538B
  5
47E6
331
2F02
  5
2F03
331
25C8
  5
25C9
331
5333
  5
5391
331
54AA
  5
54AA
331
47FD
  5
481C
331
5391
  5
47EC
331
5330
  5
538E
331
54A7
  5
54A7
331
538E
  5
47E9
331
A3C
  5
A3D
331
54A4
  5
54A4
331
5371
  5
539A
331
539A
  5
538D
331
4803
  5
4F66
331
47E2
  5
47EE
331
4800
  5
4ECD
331
47E5
  5
47F1
331
26DC
  5
2F02
331
1376
  5
1377
331
5377
  5
53A2
331
539D
  5
5389
331
5374
  5
539D
331
53A0
  5
5422
331
4817
  5
5331
331
47EE
  5
4802
331
47EB
  5
47FF
331
47E8
  5
47FC
331
5389
  5
47E4
331
54A2
  5
54A2
331
5232
  5
538B
331
47F2
  5
4816
331
481E
  5
5334
331
A3D
  5
B4D
331
41EF
  5
41F0
331
B50
  5
1376
331
5331
  5
538F
331
54A8
  5
54A8
331
538F
  5
47EA
331
52CE
  5
A3A
331
54A5
  5
54A5
331
538C
  5
47E7
331
5392
  5
47ED
331
4824
  5
5335
331
54AB
  5
54AB
331
47FE
  5
481E
331
367F
  5
3680
331
5372
  5
539B
331
539B
  5
538C
331
3ADD
  5
3ADE
331
4804
  5
5232
331
47E3
  5
47EF
331
4801
  5
4F34
331
47E6
  5
47F2
331
5375
  5
53A0
331
5378
  5
5409
331
53A1
  5
543B
331
47E9
  5
47FD
331
5226
  5
5388
331
4815
  5
52CE
331
47EF
  5
4803
331
40DE
  5
40DF
331
47EC
  5
4800
331
1C12
  5
1C13
331
5334
  5
5392
331
25C9
  5
26D9
  0
LAYOUT
  5
25
102
{ACAD_REACTORS
330
19
102
}
330
19
100
AcDbPlotSettings
  1

  2
HP DeskJet 1220C
  4

  6

 40
0.0
 41
0.0
 42
0.0
 43
0.0
 44
0.0
 45
0.0
 46
0.0
 47
0.0
 48
0.0
 49
0.0
140
0.0
141
0.0
142
1.0
143
1.0
 70
  1712
 72
     0
 73
     0
 74
     0
  7
emilio.ctb
 75
     0
147
1.0
 76
     0
 77
     2
 78
   300
148
0.0
149
0.0
100
AcDbLayout
  1
Model
 70
     1
 71
     0
 10
0.0
 20
0.0
 11
12.0
 21
9.0
 12
0.0
 22
0.0
 32
0.0
 14
0.0
 24
0.0
 34
0.0
 15
0.0
 25
0.0
 35
0.0
146
0.0
 13
0.0
 23
0.0
 33
0.0
 16
1.0
 26
0.0
 36
0.0
 17
0.0
 27
1.0
 37
0.0
 76
     0
330
22
331
51BB
  0
LAYOUT
  5
21
102
{ACAD_REACTORS
330
19
102
}
330
19
100
AcDbPlotSettings
  1

  2
HP DeskJet 1220C
  4

  6

 40
0.0
 41
0.0
 42
0.0
 43
0.0
 44
0.0
 45
0.0
 46
0.0
 47
0.0
 48
0.0
 49
0.0
140
0.0
141
0.0
142
1.0
143
1.0
 70
   688
 72
     0
 73
     0
 74
     5
  7
emilio.ctb
 75
    16
147
1.0
 76
     0
 77
     2
 78
   300
148
0.0
149
0.0
100
AcDbLayout
  1
Presentación1
 70
     1
 71
     1
 10
0.0
 20
0.0
 11
420.0
 21
297.0
 12
0.0
 22
0.0
 32
0.0
 14
1.000000000000000E+20
 24
1.000000000000000E+20
 34
1.000000000000000E+20
 15
-1.000000000000000E+20
 25
-1.000000000000000E+20
 35
-1.000000000000000E+20
146
0.0
 13
0.0
 23
0.0
 33
0.0
 16
1.0
 26
0.0
 36
0.0
 17
0.0
 27
1.0
 37
0.0
 76
     0
330
1E
  0
MATERIAL
  5
51C5
102
{ACAD_XDICTIONARY
360
51C6
102
}
102
{ACAD_REACTORS
330
1A
102
}
330
1A
100
AcDbMaterial
  1
ByBlock
 72
     0
 43
0.0208333333333333
 43
0.0
 43
0.0
 43
0.0
 43
0.0
 43
0.0208333333333333
 43
0.0
 43
0.0
 43
0.0
 43
0.0
 43
1.0
 43
0.0
 43
0.0
 43
0.0
 43
0.0
 43
1.0
 77
     0
 47
0.0208333333333333
 47
0.0
 47
0.0
 47
0.0
 47
0.0
 47
0.0208333333333333
 47
0.0
 47
0.0
 47
0.0
 47
0.0
 47
1.0
 47
0.0
 47
0.0
 47
0.0
 47
0.0
 47
1.0
171
     0
 49
0.0208333333333333
 49
0.0
 49
0.0
 49
0.0
 49
0.0
 49
0.0208333333333333
 49
0.0
 49
0.0
 49
0.0
 49
0.0
 49
1.0
 49
0.0
 49
0.0
 49
0.0
 49
0.0
 49
1.0
175
     0
142
0.0208333333333333
142
0.0
142
0.0
142
0.0
142
0.0
142
0.0208333333333333
142
0.0
142
0.0
142
0.0
142
0.0
142
1.0
142
0.0
142
0.0
142
0.0
142
0.0
142
1.0
179
     0
144
0.0208333333333333
144
0.0
144
0.0
144
0.0
144
0.0
144
0.0208333333333333
144
0.0
144
0.0
144
0.0
144
0.0
144
1.0
144
0.0
144
0.0
144
0.0
144
0.0
144
1.0
147
0.0208333333333333
147
0.0
147
0.0
147
0.0
147
0.0
147
0.0208333333333333
147
0.0
147
0.0
147
0.0
147
0.0
147
1.0
147
0.0
147
0.0
147
0.0
147
0.0
147
1.0
  0
MATERIAL
  5
51BD
102
{ACAD_XDICTIONARY
360
51BE
102
}
102
{ACAD_REACTORS
330
1A
102
}
330
1A
100
AcDbMaterial
  1
ByLayer
 72
     0
 43
0.0208333333333333
 43
0.0
 43
0.0
 43
0.0
 43
0.0
 43
0.0208333333333333
 43
0.0
 43
0.0
 43
0.0
 43
0.0
 43
1.0
 43
0.0
 43
0.0
 43
0.0
 43
0.0
 43
1.0
 77
     0
 47
0.0208333333333333
 47
0.0
 47
0.0
 47
0.0
 47
0.0
 47
0.0208333333333333
 47
0.0
 47
0.0
 47
0.0
 47
0.0
 47
1.0
 47
0.0
 47
0.0
 47
0.0
 47
0.0
 47
1.0
171
     0
 49
0.0208333333333333
 49
0.0
 49
0.0
 49
0.0
 49
0.0
 49
0.0208333333333333
 49
0.0
 49
0.0
 49
0.0
 49
0.0
 49
1.0
 49
0.0
 49
0.0
 49
0.0
 49
0.0
 49
1.0
175
     0
142
0.0208333333333333
142
0.0
142
0.0
142
0.0
142
0.0
142
0.0208333333333333
142
0.0
142
0.0
142
0.0
142
0.0
142
1.0
142
0.0
142
0.0
142
0.0
142
0.0
142
1.0
179
     0
144
0.0208333333333333
144
0.0
144
0.0
144
0.0
144
0.0
144
0.0208333333333333
144
0.0
144
0.0
144
0.0
144
0.0
144
1.0
144
0.0
144
0.0
144
0.0
144
0.0
144
1.0
147
0.0208333333333333
147
0.0
147
0.0
147
0.0
147
0.0
147
0.0208333333333333
147
0.0
147
0.0
147
0.0
147
0.0
147
1.0
147
0.0
147
0.0
147
0.0
147
0.0
147
1.0
  0
MATERIAL
  5
51CD
102
{ACAD_XDICTIONARY
360
51CE
102
}
102
{ACAD_REACTORS
330
1A
102
}
330
1A
100
AcDbMaterial
  1
Global
 72
     0
 43
0.0208333333333333
 43
0.0
 43
0.0
 43
0.0
 43
0.0
 43
0.0208333333333333
 43
0.0
 43
0.0
 43
0.0
 43
0.0
 43
1.0
 43
0.0
 43
0.0
 43
0.0
 43
0.0
 43
1.0
 77
     0
 47
0.0208333333333333
 47
0.0
 47
0.0
 47
0.0
 47
0.0
 47
0.0208333333333333
 47
0.0
 47
0.0
 47
0.0
 47
0.0
 47
1.0
 47
0.0
 47
0.0
 47
0.0
 47
0.0
 47
1.0
171
     0
 49
0.0208333333333333
 49
0.0
 49
0.0
 49
0.0
 49
0.0
 49
0.0208333333333333
 49
0.0
 49
0.0
 49
0.0
 49
0.0
 49
1.0
 49
0.0
 49
0.0
 49
0.0
 49
0.0
 49
1.0
175
     0
142
0.0208333333333333
142
0.0
142
0.0
142
0.0
142
0.0
142
0.0208333333333333
142
0.0
142
0.0
142
0.0
142
0.0
142
1.0
142
0.0
142
0.0
142
0.0
142
0.0
142
1.0
179
     0
144
0.0208333333333333
144
0.0
144
0.0
144
0.0
144
0.0
144
0.0208333333333333
144
0.0
144
0.0
144
0.0
144
0.0
144
1.0
144
0.0
144
0.0
144
0.0
144
0.0
144
1.0
147
0.0208333333333333
147
0.0
147
0.0
147
0.0
147
0.0
147
0.0208333333333333
147
0.0
147
0.0
147
0.0
147
0.0
147
1.0
147
0.0
147
0.0
147
0.0
147
0.0
147
1.0
  0
MLEADERSTYLE
  5
5209
102
{ACAD_REACTORS
330
5208
102
}
330
5208
100
AcDbMLeaderStyle
170
     2
171
     1
172
     0
 90
        2
 40
0.0
 41
0.0
173
     1
 91
-1056964608
340
13
 92
       -2
290
     1
 42
0.09
291
     1
 43
0.36
  3
Standard
 44
0.18
300

342
11
174
     1
178
     6
175
     1
176
     0
 93
-1056964608
 45
0.18
292
     0
297
     0
 46
0.18
 94
-1056964608
 47
1.0
 49
1.0
140
1.0
293
     1
141
0.0
294
     1
177
     0
142
1.0
295
     0
296
     0
143
0.125
1001
ACAD_MLEADERVER
1070
     2
  0
MLINESTYLE
  5
17
102
{ACAD_REACTORS
330
16
102
}
330
16
100
AcDbMlineStyle
  2
STANDARD
 70
     0
  3

 62
   256
 51
90.0
 52
90.0
 71
     2
 49
0.5
 62
   256
  6
BYLAYER
 49
-0.5
 62
   256
  6
BYLAYER
  0
ACDBPLACEHOLDER
  5
F
102
{ACAD_REACTORS
330
E
102
}
330
E
  0
SCALE
  5
51E7
102
{ACAD_REACTORS
330
51E6
102
}
330
51E6
100
AcDbScale
 70
     0
300
1:1
140
1.0
141
1.0
290
     1
  0
SCALE
  5
51E8
102
{ACAD_REACTORS
330
51E6
102
}
330
51E6
100
AcDbScale
 70
     0
300
1:2
140
1.0
141
2.0
290
     0
  0
SCALE
  5
51E9
102
{ACAD_REACTORS
330
51E6
102
}
330
51E6
100
AcDbScale
 70
     0
300
1:4
140
1.0
141
4.0
290
     0
  0
SCALE
  5
51EA
102
{ACAD_REACTORS
330
51E6
102
}
330
51E6
100
AcDbScale
 70
     0
300
1:5
140
1.0
141
5.0
290
     0
  0
SCALE
  5
51EB
102
{ACAD_REACTORS
330
51E6
102
}
330
51E6
100
AcDbScale
 70
     0
300
1:8
140
1.0
141
8.0
290
     0
  0
SCALE
  5
51EC
102
{ACAD_REACTORS
330
51E6
102
}
330
51E6
100
AcDbScale
 70
     0
300
1:10
140
1.0
141
10.0
290
     0
  0
SCALE
  5
51ED
102
{ACAD_REACTORS
330
51E6
102
}
330
51E6
100
AcDbScale
 70
     0
300
1:16
140
1.0
141
16.0
290
     0
  0
SCALE
  5
51EE
102
{ACAD_REACTORS
330
51E6
102
}
330
51E6
100
AcDbScale
 70
     0
300
1:20
140
1.0
141
20.0
290
     0
  0
SCALE
  5
51EF
102
{ACAD_REACTORS
330
51E6
102
}
330
51E6
100
AcDbScale
 70
     0
300
1:30
140
1.0
141
30.0
290
     0
  0
SCALE
  5
51F0
102
{ACAD_REACTORS
330
51E6
102
}
330
51E6
100
AcDbScale
 70
     0
300
1:40
140
1.0
141
40.0
290
     0
  0
SCALE
  5
51F1
102
{ACAD_REACTORS
330
51E6
102
}
330
51E6
100
AcDbScale
 70
     0
300
1:50
140
1.0
141
50.0
290
     0
  0
SCALE
  5
51F2
102
{ACAD_REACTORS
330
51E6
102
}
330
51E6
100
AcDbScale
 70
     0
300
1:100
140
1.0
141
100.0
290
     0
  0
SCALE
  5
51F3
102
{ACAD_REACTORS
330
51E6
102
}
330
51E6
100
AcDbScale
 70
     0
300
2:1
140
2.0
141
1.0
290
     0
  0
SCALE
  5
51F4
102
{ACAD_REACTORS
330
51E6
102
}
330
51E6
100
AcDbScale
 70
     0
300
4:1
140
4.0
141
1.0
290
     0
  0
SCALE
  5
51F5
102
{ACAD_REACTORS
330
51E6
102
}
330
51E6
100
AcDbScale
 70
     0
300
8:1
140
8.0
141
1.0
290
     0
  0
SCALE
  5
51F6
102
{ACAD_REACTORS
330
51E6
102
}
330
51E6
100
AcDbScale
 70
     0
300
10:1
140
10.0
141
1.0
290
     0
  0
SCALE
  5
51F7
102
{ACAD_REACTORS
330
51E6
102
}
330
51E6
100
AcDbScale
 70
     0
300
100:1
140
100.0
141
1.0
290
     0
  0
SCALE
  5
51F8
102
{ACAD_REACTORS
330
51E6
102
}
330
51E6
100
AcDbScale
 70
     0
300
1/128" = 1'-0"
140
0.0078125
141
12.0
290
     0
  0
SCALE
  5
51F9
102
{ACAD_REACTORS
330
51E6
102
}
330
51E6
100
AcDbScale
 70
     0
300
1/64" = 1'-0"
140
0.015625
141
12.0
290
     0
  0
SCALE
  5
51FA
102
{ACAD_REACTORS
330
51E6
102
}
330
51E6
100
AcDbScale
 70
     0
300
1/32" = 1'-0"
140
0.03125
141
12.0
290
     0
  0
SCALE
  5
51FB
102
{ACAD_REACTORS
330
51E6
102
}
330
51E6
100
AcDbScale
 70
     0
300
1/16" = 1'-0"
140
0.0625
141
12.0
290
     0
  0
SCALE
  5
51FC
102
{ACAD_REACTORS
330
51E6
102
}
330
51E6
100
AcDbScale
 70
     0
300
3/32" = 1'-0"
140
0.09375
141
12.0
290
     0
  0
SCALE
  5
51FD
102
{ACAD_REACTORS
330
51E6
102
}
330
51E6
100
AcDbScale
 70
     0
300
1/8" = 1'-0"
140
0.125
141
12.0
290
     0
  0
SCALE
  5
51FE
102
{ACAD_REACTORS
330
51E6
102
}
330
51E6
100
AcDbScale
 70
     0
300
3/16" = 1'-0"
140
0.1875
141
12.0
290
     0
  0
SCALE
  5
51FF
102
{ACAD_REACTORS
330
51E6
102
}
330
51E6
100
AcDbScale
 70
     0
300
1/4" = 1'-0"
140
0.25
141
12.0
290
     0
  0
SCALE
  5
5200
102
{ACAD_REACTORS
330
51E6
102
}
330
51E6
100
AcDbScale
 70
     0
300
3/8" = 1'-0"
140
0.375
141
12.0
290
     0
  0
SCALE
  5
5201
102
{ACAD_REACTORS
330
51E6
102
}
330
51E6
100
AcDbScale
 70
     0
300
1/2" = 1'-0"
140
0.5
141
12.0
290
     0
  0
SCALE
  5
5202
102
{ACAD_REACTORS
330
51E6
102
}
330
51E6
100
AcDbScale
 70
     0
300
3/4" = 1'-0"
140
0.75
141
12.0
290
     0
  0
SCALE
  5
5203
102
{ACAD_REACTORS
330
51E6
102
}
330
51E6
100
AcDbScale
 70
     0
300
1" = 1'-0"
140
1.0
141
12.0
290
     0
  0
SCALE
  5
5204
102
{ACAD_REACTORS
330
51E6
102
}
330
51E6
100
AcDbScale
 70
     0
300
1-1/2" = 1'-0"
140
1.5
141
12.0
290
     0
  0
SCALE
  5
5205
102
{ACAD_REACTORS
330
51E6
102
}
330
51E6
100
AcDbScale
 70
     0
300
3" = 1'-0"
140
3.0
141
12.0
290
     0
  0
SCALE
  5
5206
102
{ACAD_REACTORS
330
51E6
102
}
330
51E6
100
AcDbScale
 70
     0
300
6" = 1'-0"
140
6.0
141
12.0
290
     0
  0
SCALE
  5
5207
102
{ACAD_REACTORS
330
51E6
102
}
330
51E6
100
AcDbScale
 70
     0
300
1'-0" = 1'-0"
140
12.0
141
12.0
290
     0
  0
TABLESTYLE
  5
1D
102
{ACAD_XDICTIONARY
360
52C0
102
}
102
{ACAD_REACTORS
330
1C
102
}
330
1C
100
AcDbTableStyle
  3
Standard
 70
     0
 71
     0
 40
0.06
 41
0.06
280
     0
281
     0
  7
STANDARD
140
0.18
170
     2
 62
     0
 63
     7
283
     0
274
    -2
284
     1
 64
     0
275
    -2
285
     1
 65
     0
276
    -2
286
     1
 66
     0
277
    -2
287
     1
 67
     0
278
    -2
288
     1
 68
     0
279
    -2
289
     1
 69
     0
  7
STANDARD
140
0.25
170
     5
 62
     0
 63
     7
283
     0
274
    -2
284
     1
 64
     0
275
    -2
285
     1
 65
     0
276
    -2
286
     1
 66
     0
277
    -2
287
     1
 67
     0
278
    -2
288
     1
 68
     0
279
    -2
289
     1
 69
     0
  7
STANDARD
140
0.18
170
     5
 62
     0
 63
     7
283
     0
274
    -2
284
     1
 64
     0
275
    -2
285
     1
 65
     0
276
    -2
286
     1
 66
     0
277
    -2
287
     1
 67
     0
278
    -2
288
     1
 68
     0
279
    -2
289
     1
 69
     0
  0
VISUALSTYLE
  5
51DB
102
{ACAD_REACTORS
330
51D5
102
}
330
51D5
100
AcDbVisualStyle
  2
2dWireframe
 70
     4
 71
     0
 72
     2
 73
     0
 90
        0
 40
-0.6
 41
-30.0
 62
     5
 63
     7
421
 16777215
 74
     1
 91
        4
 64
     7
 65
   257
 75
     1
175
     1
 42
1.0
 92
        0
 66
   257
 43
1.0
 76
     1
 77
     6
 78
     2
 67
     7
 79
     5
170
     0
171
     0
290
     0
174
     0
 93
        1
 44
0.0
173
     0
291
     0
 45
0.0
1001
ACAD
1000
AcDbSavedByObjectVersion
1070
     0
  0
VISUALSTYLE
  5
51DD
102
{ACAD_REACTORS
330
51D5
102
}
330
51D5
100
AcDbVisualStyle
  2
3D Hidden
 70
     6
 71
     1
 72
     2
 73
     2
 90
        0
 40
-0.6
 41
-30.0
 62
     5
 63
     7
421
 16777215
 74
     2
 91
        2
 64
     7
 65
   257
 75
     2
175
     1
 42
40.0
 92
        0
 66
   257
 43
1.0
 76
     1
 77
     6
 78
     2
 67
     7
 79
     3
170
     0
171
     0
290
     0
174
     0
 93
        1
 44
0.0
173
     0
291
     0
 45
0.0
1001
ACAD
1000
AcDbSavedByObjectVersion
1070
     0
  0
VISUALSTYLE
  5
51DC
102
{ACAD_REACTORS
330
51D5
102
}
330
51D5
100
AcDbVisualStyle
  2
3dWireframe
 70
     5
 71
     0
 72
     2
 73
     0
 90
        0
 40
-0.6
 41
-30.0
 62
     5
 63
     7
421
 16777215
 74
     1
 91
        4
 64
     7
 65
   257
 75
     1
175
     1
 42
1.0
 92
        0
 66
   257
 43
1.0
 76
     1
 77
     6
 78
     2
 67
     7
 79
     5
170
     0
171
     0
290
     0
174
     0
 93
        1
 44
0.0
173
     0
291
     0
 45
0.0
1001
ACAD
1000
AcDbSavedByObjectVersion
1070
     0
  0
VISUALSTYLE
  5
51DA
102
{ACAD_REACTORS
330
51D5
102
}
330
51D5
100
AcDbVisualStyle
  2
Basic
 70
     7
 71
     1
 72
     0
 73
     1
 90
        0
 40
-0.6
 41
-30.0
 62
     5
 63
     7
421
 16777215
 74
     0
 91
        4
 64
     7
 65
   257
 75
     1
175
     1
 42
1.0
 92
        8
 66
     7
 43
1.0
 76
     1
 77
     6
 78
     2
 67
     7
 79
     5
170
     0
171
     0
290
     0
174
     0
 93
        1
 44
0.0
173
     0
291
     1
 45
0.0
1001
ACAD
1000
AcDbSavedByObjectVersion
1070
     0
  0
VISUALSTYLE
  5
51E1
102
{ACAD_REACTORS
330
51D5
102
}
330
51D5
100
AcDbVisualStyle
  2
Brighten
 70
    12
 71
     2
 72
     2
 73
     0
 90
        0
 40
-0.6
 41
-30.0
 62
     5
 63
     7
421
 16777215
 74
     1
 91
        4
 64
     7
 65
   257
 75
     1
175
     1
 42
1.0
 92
        8
 66
     7
 43
1.0
 76
     1
 77
     6
 78
     2
 67
     7
 79
     5
170
     0
171
     0
290
     0
174
     0
 93
        1
 44
50.0
173
     0
291
     1
 45
0.0
1001
ACAD
1000
AcDbSavedByObjectVersion
1070
     0
  0
VISUALSTYLE
  5
51E5
102
{ACAD_REACTORS
330
51D5
102
}
330
51D5
100
AcDbVisualStyle
  2
ColorChange
 70
    16
 71
     2
 72
     2
 73
     3
 90
        0
 40
-0.6
 41
-30.0
 62
     5
 63
     8
421
  8421504
 74
     1
 91
        4
 64
     7
 65
   257
 75
     1
175
     1
 42
1.0
 92
        8
 66
     8
424
  8421504
 43
1.0
 76
     1
 77
     6
 78
     2
 67
     7
 79
     5
170
     0
171
     0
290
     0
174
     0
 93
        1
 44
0.0
173
     0
291
     1
 45
0.0
1001
ACAD
1000
AcDbSavedByObjectVersion
1070
     0
  0
VISUALSTYLE
  5
51DE
102
{ACAD_REACTORS
330
51D5
102
}
330
51D5
100
AcDbVisualStyle
  2
Conceptual
 70
     9
 71
     3
 72
     2
 73
     0
 90
        0
 40
-0.6
 41
-30.0
 62
     5
 63
     7
421
 16777215
 74
     2
 91
        2
 64
     7
 65
   257
 75
     1
175
     1
 42
40.0
 92
        8
 66
     7
 43
1.0
 76
     1
 77
     6
 78
     2
 67
     7
 79
     3
170
     0
171
     0
290
     0
174
     0
 93
        1
 44
0.0
173
     0
291
     0
 45
0.0
1001
ACAD
1000
AcDbSavedByObjectVersion
1070
     0
  0
VISUALSTYLE
  5
51E0
102
{ACAD_REACTORS
330
51D5
102
}
330
51D5
100
AcDbVisualStyle
  2
Dim
 70
    11
 71
     2
 72
     2
 73
     0
 90
        0
 40
-0.6
 41
-30.0
 62
     5
 63
     7
421
 16777215
 74
     1
 91
        4
 64
     7
 65
   257
 75
     1
175
     1
 42
1.0
 92
        8
 66
     7
 43
1.0
 76
     1
 77
     6
 78
     2
 67
     7
 79
     5
170
     0
171
     0
290
     0
174
     0
 93
        1
 44
-50.0
173
     0
291
     1
 45
0.0
1001
ACAD
1000
AcDbSavedByObjectVersion
1070
     0
  0
VISUALSTYLE
  5
51E4
102
{ACAD_REACTORS
330
51D5
102
}
330
51D5
100
AcDbVisualStyle
  2
Facepattern
 70
    15
 71
     2
 72
     2
 73
     0
 90
        0
 40
-0.6
 41
-30.0
 62
     5
 63
     7
421
 16777215
 74
     1
 91
        4
 64
     7
 65
   257
 75
     1
175
     1
 42
1.0
 92
        8
 66
     7
 43
1.0
 76
     1
 77
     6
 78
     2
 67
     7
 79
     5
170
     0
171
     0
290
     0
174
     0
 93
        1
 44
0.0
173
     0
291
     1
 45
0.0
1001
ACAD
1000
AcDbSavedByObjectVersion
1070
     0
  0
VISUALSTYLE
  5
51D6
102
{ACAD_REACTORS
330
51D5
102
}
330
51D5
100
AcDbVisualStyle
  2
Flat
 70
     0
 71
     2
 72
     1
 73
     1
 90
        2
 40
-0.6
 41
30.0
 62
     5
 63
     7
421
 16777215
 74
     0
 91
        4
 64
     7
 65
   257
 75
     1
175
     1
 42
1.0
 92
        8
 66
     7
 43
1.0
 76
     1
 77
     6
 78
     2
 67
     7
 79
     5
170
     0
171
     0
290
     0
174
     0
 93
       13
 44
0.0
173
     0
291
     1
 45
0.0
1001
ACAD
1000
AcDbSavedByObjectVersion
1070
     0
  0
VISUALSTYLE
  5
51D7
102
{ACAD_REACTORS
330
51D5
102
}
330
51D5
100
AcDbVisualStyle
  2
FlatWithEdges
 70
     1
 71
     2
 72
     1
 73
     1
 90
        2
 40
-0.6
 41
30.0
 62
     5
 63
     7
421
 16777215
 74
     1
 91
        4
 64
     7
 65
   257
 75
     1
175
     1
 42
1.0
 92
        0
 66
   257
 43
1.0
 76
     1
 77
     6
 78
     2
 67
     7
 79
     5
170
     0
171
     0
290
     0
174
     0
 93
       13
 44
0.0
173
     0
291
     1
 45
0.0
1001
ACAD
1000
AcDbSavedByObjectVersion
1070
     0
  0
VISUALSTYLE
  5
51D8
102
{ACAD_REACTORS
330
51D5
102
}
330
51D5
100
AcDbVisualStyle
  2
Gouraud
 70
     2
 71
     2
 72
     2
 73
     1
 90
        2
 40
-0.6
 41
30.0
 62
     5
 63
     7
421
 16777215
 74
     0
 91
        4
 64
     7
 65
   257
 75
     1
175
     1
 42
1.0
 92
        0
 66
     7
 43
1.0
 76
     1
 77
     6
 78
     2
 67
     7
 79
     5
170
     0
171
     0
290
     0
174
     0
 93
       13
 44
0.0
173
     0
291
     1
 45
0.0
1001
ACAD
1000
AcDbSavedByObjectVersion
1070
     0
  0
VISUALSTYLE
  5
51D9
102
{ACAD_REACTORS
330
51D5
102
}
330
51D5
100
AcDbVisualStyle
  2
GouraudWithEdges
 70
     3
 71
     2
 72
     2
 73
     1
 90
        2
 40
-0.6
 41
30.0
 62
     5
 63
     7
421
 16777215
 74
     1
 91
        4
 64
     7
 65
   257
 75
     1
175
     1
 42
1.0
 92
        0
 66
   257
 43
1.0
 76
     1
 77
     6
 78
     2
 67
     7
 79
     5
170
     0
171
     0
290
     0
174
     0
 93
       13
 44
0.0
173
     0
291
     1
 45
0.0
1001
ACAD
1000
AcDbSavedByObjectVersion
1070
     0
  0
VISUALSTYLE
  5
51E3
102
{ACAD_REACTORS
330
51D5
102
}
330
51D5
100
AcDbVisualStyle
  2
Linepattern
 70
    14
 71
     2
 72
     2
 73
     0
 90
        0
 40
-0.6
 41
-30.0
 62
     5
 63
     7
421
 16777215
 74
     1
 91
        4
 64
     7
 65
   257
 75
     7
175
     7
 42
1.0
 92
        8
 66
     7
 43
1.0
 76
     1
 77
     6
 78
     2
 67
     7
 79
     5
170
     0
171
     0
290
     0
174
     0
 93
        1
 44
0.0
173
     0
291
     1
 45
0.0
1001
ACAD
1000
AcDbSavedByObjectVersion
1070
     0
  0
VISUALSTYLE
  5
51DF
102
{ACAD_REACTORS
330
51D5
102
}
330
51D5
100
AcDbVisualStyle
  2
Realistic
 70
     8
 71
     2
 72
     2
 73
     0
 90
        0
 40
-0.6
 41
-30.0
 62
     5
 63
     7
421
 16777215
 74
     1
 91
        0
 64
     7
 65
   257
 75
     1
175
     1
 42
1.0
 92
        8
 66
     8
424
  7895160
 43
1.0
 76
     1
 77
     6
 78
     2
 67
     7
 79
     5
170
     0
171
     0
290
     0
174
     0
 93
       13
 44
0.0
173
     0
291
     0
 45
0.0
1001
ACAD
1000
AcDbSavedByObjectVersion
1070
     0
  0
VISUALSTYLE
  5
51E2
102
{ACAD_REACTORS
330
51D5
102
}
330
51D5
100
AcDbVisualStyle
  2
Thicken
 70
    13
 71
     2
 72
     2
 73
     0
 90
        0
 40
-0.6
 41
-30.0
 62
     5
 63
     7
421
 16777215
 74
     1
 91
        4
 64
     7
 65
   257
 75
     1
175
     1
 42
1.0
 92
       12
 66
     7
 43
1.0
 76
     1
 77
     6
 78
     2
 67
     7
 79
     5
170
     0
171
     0
290
     0
174
     0
 93
        1
 44
0.0
173
     0
291
     1
 45
0.0
1001
ACAD
1000
AcDbSavedByObjectVersion
1070
     0
  0
DICTIONARYVAR
  5
5244
102
{ACAD_REACTORS
330
4AF5
102
}
330
4AF5
100
DictionaryVariables
280
     0
  1
1:1
  0
DICTIONARYVAR
  5
5243
102
{ACAD_REACTORS
330
4AF5
102
}
330
4AF5
100
DictionaryVariables
280
     0
  1
STANDARD
  0
DICTIONARYVAR
  5
4AF6
102
{ACAD_REACTORS
330
4AF5
102
}
330
4AF5
100
DictionaryVariables
280
     0
  1
STANDARD
  0
DICTIONARYVAR
  5
5248
102
{ACAD_REACTORS
330
4AF5
102
}
330
4AF5
100
DictionaryVariables
280
     0
  1
2
  0
DICTIONARYVAR
  5
5247
102
{ACAD_REACTORS
330
4AF5
102
}
330
4AF5
100
DictionaryVariables
280
     0
  1
1
  0
DICTIONARYVAR
  5
5246
102
{ACAD_REACTORS
330
4AF5
102
}
330
4AF5
100
DictionaryVariables
280
     0
  1
0
  0
DICTIONARYVAR
  5
52C4
102
{ACAD_REACTORS
330
4AF5
102
}
330
4AF5
100
DictionaryVariables
280
     0
  1
0
  0
DICTIONARYVAR
  5
52C3
102
{ACAD_REACTORS
330
4AF5
102
}
330
4AF5
100
DictionaryVariables
280
     0
  1
0
  0
DICTIONARYVAR
  5
5245
102
{ACAD_REACTORS
330
4AF5
102
}
330
4AF5
100
DictionaryVariables
280
     0
  1
127
  0
DICTIONARY
  5
51C6
330
51C5
100
AcDbDictionary
280
     1
281
     1
  3
ACAD_XREC_ROUNDTRIP
360
556C
  3
BUMPTILE
360
51C8
  3
DIFFUSETILE
360
51C7
  3
OPACITYTILE
360
51CB
  3
REFLECTIONTILE
360
51CA
  3
REFRACTIONTILE
360
51CC
  3
SPECULARTILE
360
51C9
  0
DICTIONARY
  5
51BE
330
51BD
100
AcDbDictionary
280
     1
281
     1
  3
ACAD_XREC_ROUNDTRIP
360
556B
  3
BUMPTILE
360
51C0
  3
DIFFUSETILE
360
51BF
  3
OPACITYTILE
360
51C3
  3
REFLECTIONTILE
360
51C2
  3
REFRACTIONTILE
360
51C4
  3
SPECULARTILE
360
51C1
  0
DICTIONARY
  5
51CE
330
51CD
100
AcDbDictionary
280
     1
281
     1
  3
ACAD_XREC_ROUNDTRIP
360
556D
  3
BUMPTILE
360
51D0
  3
DIFFUSETILE
360
51CF
  3
OPACITYTILE
360
51D3
  3
REFLECTIONTILE
360
51D2
  3
REFRACTIONTILE
360
51D4
  3
SPECULARTILE
360
51D1
  0
DICTIONARY
  5
52C0
330
1D
100
AcDbDictionary
280
     1
281
     1
  3
ACAD_ROUNDTRIP_2008_TABLESTYLE_CELLSTYLEMAP
360
5569
  3
ACAD_XREC_ROUNDTRIP
360
556A
  0
XRECORD
  5
556C
102
{ACAD_REACTORS
330
51C6
102
}
330
51C6
100
AcDbXrecord
280
     1
102
MATERIAL
148
0.0
149
0.0
149
0.0
 93
        0
 94
      127
282
     0
 72
     0
 77
     0
171
     0
175
     0
179
     0
273
     0
  0
XRECORD
  5
51C8
102
{ACAD_REACTORS
330
51C6
102
}
330
51C6
100
AcDbXrecord
280
     1
270
     1
271
     1
  0
XRECORD
  5
51C7
102
{ACAD_REACTORS
330
51C6
102
}
330
51C6
100
AcDbXrecord
280
     1
270
     1
271
     1
  0
XRECORD
  5
51CB
102
{ACAD_REACTORS
330
51C6
102
}
330
51C6
100
AcDbXrecord
280
     1
270
     1
271
     1
  0
XRECORD
  5
51CA
102
{ACAD_REACTORS
330
51C6
102
}
330
51C6
100
AcDbXrecord
280
     1
270
     1
271
     1
  0
XRECORD
  5
51CC
102
{ACAD_REACTORS
330
51C6
102
}
330
51C6
100
AcDbXrecord
280
     1
270
     1
271
     1
  0
XRECORD
  5
51C9
102
{ACAD_REACTORS
330
51C6
102
}
330
51C6
100
AcDbXrecord
280
     1
270
     1
271
     1
  0
XRECORD
  5
556B
102
{ACAD_REACTORS
330
51BE
102
}
330
51BE
100
AcDbXrecord
280
     1
102
MATERIAL
148
0.0
149
0.0
149
0.0
 93
        0
 94
      127
282
     0
 72
     0
 77
     0
171
     0
175
     0
179
     0
273
     0
  0
XRECORD
  5
51C0
102
{ACAD_REACTORS
330
51BE
102
}
330
51BE
100
AcDbXrecord
280
     1
270
     1
271
     1
  0
XRECORD
  5
51BF
102
{ACAD_REACTORS
330
51BE
102
}
330
51BE
100
AcDbXrecord
280
     1
270
     1
271
     1
  0
XRECORD
  5
51C3
102
{ACAD_REACTORS
330
51BE
102
}
330
51BE
100
AcDbXrecord
280
     1
270
     1
271
     1
  0
XRECORD
  5
51C2
102
{ACAD_REACTORS
330
51BE
102
}
330
51BE
100
AcDbXrecord
280
     1
270
     1
271
     1
  0
XRECORD
  5
51C4
102
{ACAD_REACTORS
330
51BE
102
}
330
51BE
100
AcDbXrecord
280
     1
270
     1
271
     1
  0
XRECORD
  5
51C1
102
{ACAD_REACTORS
330
51BE
102
}
330
51BE
100
AcDbXrecord
280
     1
270
     1
271
     1
  0
XRECORD
  5
556D
102
{ACAD_REACTORS
330
51CE
102
}
330
51CE
100
AcDbXrecord
280
     1
102
MATERIAL
148
0.0
149
0.0
149
0.0
 93
        0
 94
      127
282
     0
 72
     0
 77
     0
171
     0
175
     0
179
     0
273
     0
  0
XRECORD
  5
51D0
102
{ACAD_REACTORS
330
51CE
102
}
330
51CE
100
AcDbXrecord
280
     1
270
     1
271
     1
  0
XRECORD
  5
51CF
102
{ACAD_REACTORS
330
51CE
102
}
330
51CE
100
AcDbXrecord
280
     1
270
     1
271
     1
  0
XRECORD
  5
51D3
102
{ACAD_REACTORS
330
51CE
102
}
330
51CE
100
AcDbXrecord
280
     1
270
     1
271
     1
  0
XRECORD
  5
51D2
102
{ACAD_REACTORS
330
51CE
102
}
330
51CE
100
AcDbXrecord
280
     1
270
     1
271
     1
  0
XRECORD
  5
51D4
102
{ACAD_REACTORS
330
51CE
102
}
330
51CE
100
AcDbXrecord
280
     1
270
     1
271
     1
  0
XRECORD
  5
51D1
102
{ACAD_REACTORS
330
51CE
102
}
330
51CE
100
AcDbXrecord
280
     1
270
     1
271
     1
  0
CELLSTYLEMAP
  5
5569
102
{ACAD_REACTORS
330
52C0
102
}
330
52C0
100
AcDbCellStyleMap
 90
        3
300
CELLSTYLE
  1
TABLEFORMAT_BEGIN
 90
        5
170
     1
 91
        0
 92
    32768
 62
   257
 93
        1
300
CONTENTFORMAT
  1
CONTENTFORMAT_BEGIN
 90
        0
 91
        0
 92
        4
 93
        0
300

 40
0.0
140
1.0
 94
        5
 62
     0
340
11
144
0.25
309
CONTENTFORMAT_END
171
     0
 94
        6
 95
        1
302
GRIDFORMAT
  1
GRIDFORMAT_BEGIN
 90
        0
 91
        1
 62
     0
 92
       -2
340
0
 93
        0
 40
0.045
309
GRIDFORMAT_END
 95
        2
302
GRIDFORMAT
  1
GRIDFORMAT_BEGIN
 90
        0
 91
        1
 62
     0
 92
       -2
340
0
 93
        0
 40
0.045
309
GRIDFORMAT_END
 95
        4
302
GRIDFORMAT
  1
GRIDFORMAT_BEGIN
 90
        0
 91
        1
 62
     0
 92
       -2
340
0
 93
        0
 40
0.045
309
GRIDFORMAT_END
 95
        8
302
GRIDFORMAT
  1
GRIDFORMAT_BEGIN
 90
        0
 91
        1
 62
     0
 92
       -2
340
0
 93
        0
 40
0.045
309
GRIDFORMAT_END
 95
       16
302
GRIDFORMAT
  1
GRIDFORMAT_BEGIN
 90
        0
 91
        1
 62
     0
 92
       -2
340
0
 93
        0
 40
0.045
309
GRIDFORMAT_END
 95
       32
302
GRIDFORMAT
  1
GRIDFORMAT_BEGIN
 90
        0
 91
        1
 62
     0
 92
       -2
340
0
 93
        0
 40
0.045
309
GRIDFORMAT_END
309
TABLEFORMAT_END
  1
CELLSTYLE_BEGIN
 90
        1
 91
        1
300
_TITLE
309
CELLSTYLE_END
300
CELLSTYLE
  1
TABLEFORMAT_BEGIN
 90
        5
170
     1
 91
        0
 92
        0
 62
   257
 93
        1
300
CONTENTFORMAT
  1
CONTENTFORMAT_BEGIN
 90
        0
 91
        0
 92
        4
 93
        0
300

 40
0.0
140
1.0
 94
        5
 62
     0
340
11
144
0.18
309
CONTENTFORMAT_END
171
     0
 94
        6
 95
        1
302
GRIDFORMAT
  1
GRIDFORMAT_BEGIN
 90
        0
 91
        1
 62
     0
 92
       -2
340
0
 93
        0
 40
0.045
309
GRIDFORMAT_END
 95
        2
302
GRIDFORMAT
  1
GRIDFORMAT_BEGIN
 90
        0
 91
        1
 62
     0
 92
       -2
340
0
 93
        0
 40
0.045
309
GRIDFORMAT_END
 95
        4
302
GRIDFORMAT
  1
GRIDFORMAT_BEGIN
 90
        0
 91
        1
 62
     0
 92
       -2
340
0
 93
        0
 40
0.045
309
GRIDFORMAT_END
 95
        8
302
GRIDFORMAT
  1
GRIDFORMAT_BEGIN
 90
        0
 91
        1
 62
     0
 92
       -2
340
0
 93
        0
 40
0.045
309
GRIDFORMAT_END
 95
       16
302
GRIDFORMAT
  1
GRIDFORMAT_BEGIN
 90
        0
 91
        1
 62
     0
 92
       -2
340
0
 93
        0
 40
0.045
309
GRIDFORMAT_END
 95
       32
302
GRIDFORMAT
  1
GRIDFORMAT_BEGIN
 90
        0
 91
        1
 62
     0
 92
       -2
340
0
 93
        0
 40
0.045
309
GRIDFORMAT_END
309
TABLEFORMAT_END
  1
CELLSTYLE_BEGIN
 90
        2
 91
        1
300
_HEADER
309
CELLSTYLE_END
300
CELLSTYLE
  1
TABLEFORMAT_BEGIN
 90
        5
170
     1
 91
        0
 92
        0
 62
   257
 93
        1
300
CONTENTFORMAT
  1
CONTENTFORMAT_BEGIN
 90
        0
 91
        0
 92
        4
 93
        0
300

 40
0.0
140
1.0
 94
        2
 62
     0
340
11
144
0.18
309
CONTENTFORMAT_END
171
     0
 94
        6
 95
        1
302
GRIDFORMAT
  1
GRIDFORMAT_BEGIN
 90
        0
 91
        1
 62
     0
 92
       -2
340
0
 93
        0
 40
0.045
309
GRIDFORMAT_END
 95
        2
302
GRIDFORMAT
  1
GRIDFORMAT_BEGIN
 90
        0
 91
        1
 62
     0
 92
       -2
340
0
 93
        0
 40
0.045
309
GRIDFORMAT_END
 95
        4
302
GRIDFORMAT
  1
GRIDFORMAT_BEGIN
 90
        0
 91
        1
 62
     0
 92
       -2
340
0
 93
        0
 40
0.045
309
GRIDFORMAT_END
 95
        8
302
GRIDFORMAT
  1
GRIDFORMAT_BEGIN
 90
        0
 91
        1
 62
     0
 92
       -2
340
0
 93
        0
 40
0.045
309
GRIDFORMAT_END
 95
       16
302
GRIDFORMAT
  1
GRIDFORMAT_BEGIN
 90
        0
 91
        1
 62
     0
 92
       -2
340
0
 93
        0
 40
0.045
309
GRIDFORMAT_END
 95
       32
302
GRIDFORMAT
  1
GRIDFORMAT_BEGIN
 90
        0
 91
        1
 62
     0
 92
       -2
340
0
 93
        0
 40
0.045
309
GRIDFORMAT_END
309
TABLEFORMAT_END
  1
CELLSTYLE_BEGIN
 90
        3
 91
        2
300
_DATA
309
CELLSTYLE_END
  0
XRECORD
  5
556A
102
{ACAD_REACTORS
330
52C0
102
}
330
52C0
100
AcDbXrecord
280
     1
102
ACAD_ROUNDTRIP_PRE2007_TABLESTYLE
 90
        4
 91
        0
  1

 92
        4
 93
        0
  2

 94
        4
 95
        0
  3

  0
ENDSEC
  0
EOF
