  0
SECTION
  2
HEADER
  9
$ACADVER
  1
AC1018
  9
$ACADMAINTVER
 70
   104
  9
$DWGCODEPAGE
  3
ANSI_1252
  9
$LASTSAVEDBY
  1
emilio
  9
$INSBASE
 10
0.0
 20
0.0
 30
0.0
  9
$EXTMIN
 10
-13551.31506
 20
-5692.84459804386
 30
0.0
  9
$EXTMAX
 10
-8943.748538306616
 20
-2349.569114
 30
0.0
  9
$LIMMIN
 10
0.0
 20
0.0
  9
$LIMMAX
 10
420.0
 20
297.0
  9
$ORTHOMODE
 70
     1
  9
$REGENMODE
 70
     1
  9
$FILLMODE
 70
     1
  9
$QTEXTMODE
 70
     0
  9
$MIRRTEXT
 70
     1
  9
$LTSCALE
 40
1.0
  9
$ATTMODE
 70
     1
  9
$TEXTSIZE
 40
40.0
  9
$TRACEWID
 40
1.0
  9
$TEXTSTYLE
  7
STANDARD
  9
$CLAYER
  8
0
  9
$CELTYPE
  6
ByLayer
  9
$CECOLOR
 62
   256
  9
$CELTSCALE
 40
1.0
  9
$DISPSILH
 70
     0
  9
$DIMSCALE
 40
1.0
  9
$DIMASZ
 40
80.0
  9
$DIMEXO
 40
0.625
  9
$DIMDLI
 40
40.0
  9
$DIMRND
 40
0.0
  9
$DIMDLE
 40
0.0
  9
$DIMEXE
 40
1.25
  9
$DIMTP
 40
0.0
  9
$DIMTM
 40
0.0
  9
$DIMTXT
 40
100.0
  9
$DIMCEN
 40
2.5
  9
$DIMTSZ
 40
0.0
  9
$DIMTOL
 70
     0
  9
$DIMLIM
 70
     0
  9
$DIMTIH
 70
     0
  9
$DIMTOH
 70
     0
  9
$DIMSE1
 70
     0
  9
$DIMSE2
 70
     0
  9
$DIMTAD
 70
     1
  9
$DIMZIN
 70
     8
  9
$DIMBLK
  1

  9
$DIMASO
 70
     1
  9
$DIMSHO
 70
     1
  9
$DIMPOST
  1

  9
$DIMAPOST
  1

  9
$DIMALT
 70
     0
  9
$DIMALTD
 70
     2
  9
$DIMALTF
 40
0.0394
  9
$DIMLFAC
 40
1.0
  9
$DIMTOFL
 70
     1
  9
$DIMTVP
 40
0.0
  9
$DIMTIX
 70
     0
  9
$DIMSOXD
 70
     0
  9
$DIMSAH
 70
     0
  9
$DIMBLK1
  1

  9
$DIMBLK2
  1

  9
$DIMSTYLE
  2
Standard
  9
$DIMCLRD
 70
     0
  9
$DIMCLRE
 70
     0
  9
$DIMCLRT
 70
     0
  9
$DIMTFAC
 40
0.0625
  9
$DIMGAP
 40
40.0
  9
$DIMJUST
 70
     0
  9
$DIMSD1
 70
     0
  9
$DIMSD2
 70
     0
  9
$DIMTOLJ
 70
     1
  9
$DIMTZIN
 70
     8
  9
$DIMALTZ
 70
     8
  9
$DIMALTTZ
 70
     8
  9
$DIMUPT
 70
     0
  9
$DIMDEC
 70
     4
  9
$DIMTDEC
 70
     4
  9
$DIMALTU
 70
     2
  9
$DIMALTTD
 70
     2
  9
$DIMTXSTY
  7
STANDARD
  9
$DIMAUNIT
 70
     0
  9
$DIMADEC
 70
     0
  9
$DIMALTRND
 40
0.0
  9
$DIMAZIN
 70
     0
  9
$DIMDSEP
 70
    46
  9
$DIMATFIT
 70
     3
  9
$DIMFRAC
 70
     0
  9
$DIMLDRBLK
  1

  9
$DIMLUNIT
 70
     2
  9
$DIMLWD
 70
    -2
  9
$DIMLWE
 70
    -2
  9
$DIMTMOVE
 70
     2
  9
$LUNITS
 70
     2
  9
$LUPREC
 70
     4
  9
$SKETCHINC
 40
1.0
  9
$FILLETRAD
 40
0.0
  9
$AUNITS
 70
     0
  9
$AUPREC
 70
     0
  9
$MENU
  1
acad
  9
$ELEVATION
 40
0.0
  9
$PELEVATION
 40
0.0
  9
$THICKNESS
 40
0.0
  9
$LIMCHECK
 70
     0
  9
$CHAMFERA
 40
10.0
  9
$CHAMFERB
 40
10.0
  9
$CHAMFERC
 40
0.0
  9
$CHAMFERD
 40
0.0
  9
$SKPOLY
 70
     0
  9
$TDCREATE
 40
2454888.726330672
  9
$TDUCREATE
 40
2454888.642997338
  9
$TDUPDATE
 40
2455392.613586782
  9
$TDUUPDATE
 40
2455392.530253449
  9
$TDINDWG
 40
0.0503257523
  9
$TDUSRTIMER
 40
0.0503257523
  9
$USRTIMER
 70
     1
  9
$ANGBASE
 50
0.0
  9
$ANGDIR
 70
     0
  9
$PDMODE
 70
    98
  9
$PDSIZE
 40
0.0
  9
$PLINEWID
 40
0.0
  9
$SPLFRAME
 70
     0
  9
$SPLINETYPE
 70
     6
  9
$SPLINESEGS
 70
     8
  9
$HANDSEED
  5
5393
  9
$SURFTAB1
 70
     6
  9
$SURFTAB2
 70
     6
  9
$SURFTYPE
 70
     6
  9
$SURFU
 70
     6
  9
$SURFV
 70
     6
  9
$UCSBASE
  2

  9
$UCSNAME
  2

  9
$UCSORG
 10
0.0
 20
0.0
 30
0.0
  9
$UCSXDIR
 10
1.0
 20
0.0
 30
0.0
  9
$UCSYDIR
 10
0.0
 20
1.0
 30
0.0
  9
$UCSORTHOREF
  2

  9
$UCSORTHOVIEW
 70
     0
  9
$UCSORGTOP
 10
0.0
 20
0.0
 30
0.0
  9
$UCSORGBOTTOM
 10
0.0
 20
0.0
 30
0.0
  9
$UCSORGLEFT
 10
0.0
 20
0.0
 30
0.0
  9
$UCSORGRIGHT
 10
0.0
 20
0.0
 30
0.0
  9
$UCSORGFRONT
 10
0.0
 20
0.0
 30
0.0
  9
$UCSORGBACK
 10
0.0
 20
0.0
 30
0.0
  9
$PUCSBASE
  2

  9
$PUCSNAME
  2

  9
$PUCSORG
 10
0.0
 20
0.0
 30
0.0
  9
$PUCSXDIR
 10
1.0
 20
0.0
 30
0.0
  9
$PUCSYDIR
 10
0.0
 20
1.0
 30
0.0
  9
$PUCSORTHOREF
  2

  9
$PUCSORTHOVIEW
 70
     0
  9
$PUCSORGTOP
 10
0.0
 20
0.0
 30
0.0
  9
$PUCSORGBOTTOM
 10
0.0
 20
0.0
 30
0.0
  9
$PUCSORGLEFT
 10
0.0
 20
0.0
 30
0.0
  9
$PUCSORGRIGHT
 10
0.0
 20
0.0
 30
0.0
  9
$PUCSORGFRONT
 10
0.0
 20
0.0
 30
0.0
  9
$PUCSORGBACK
 10
0.0
 20
0.0
 30
0.0
  9
$USERI1
 70
     0
  9
$USERI2
 70
     0
  9
$USERI3
 70
     0
  9
$USERI4
 70
     0
  9
$USERI5
 70
     0
  9
$USERR1
 40
0.0
  9
$USERR2
 40
0.0
  9
$USERR3
 40
0.0
  9
$USERR4
 40
0.0
  9
$USERR5
 40
0.0
  9
$WORLDVIEW
 70
     1
  9
$SHADEDGE
 70
     3
  9
$SHADEDIF
 70
    70
  9
$TILEMODE
 70
     1
  9
$MAXACTVP
 70
    16
  9
$PINSBASE
 10
0.0
 20
0.0
 30
0.0
  9
$PLIMCHECK
 70
     0
  9
$PEXTMIN
 10
1.000000000000000E+20
 20
1.000000000000000E+20
 30
1.000000000000000E+20
  9
$PEXTMAX
 10
-1.000000000000000E+20
 20
-1.000000000000000E+20
 30
-1.000000000000000E+20
  9
$PLIMMIN
 10
0.0
 20
0.0
  9
$PLIMMAX
 10
420.0
 20
297.0
  9
$UNITMODE
 70
     0
  9
$VISRETAIN
 70
     0
  9
$PLINEGEN
 70
     0
  9
$PSLTSCALE
 70
     1
  9
$TREEDEPTH
 70
  3020
  9
$CMLSTYLE
  2
Standard
  9
$CMLJUST
 70
     0
  9
$CMLSCALE
 40
1.0
  9
$PROXYGRAPHICS
 70
     1
  9
$MEASUREMENT
 70
     0
  9
$CELWEIGHT
370
    -1
  9
$ENDCAPS
280
     0
  9
$JOINSTYLE
280
     0
  9
$LWDISPLAY
290
     0
  9
$INSUNITS
 70
     0
  9
$HYPERLINKBASE
  1

  9
$STYLESHEET
  1

  9
$XEDIT
290
     1
  9
$CEPSNTYPE
380
     0
  9
$PSTYLEMODE
290
     1
  9
$FINGERPRINTGUID
  2
{8C4B330B-5BC4-4EAF-9DE2-6CD8012EAADE}
  9
$VERSIONGUID
  2
{5903C55E-BA95-4649-AD60-0D1B946391D3}
  9
$EXTNAMES
290
     1
  9
$PSVPSCALE
 40
0.0
  9
$OLESTARTUP
290
     0
  9
$SORTENTS
280
   127
  9
$INDEXCTL
280
     0
  9
$HIDETEXT
280
     1
  9
$XCLIPFRAME
290
     0
  9
$HALOGAP
280
     0
  9
$OBSCOLOR
 70
   257
  9
$OBSLTYPE
280
     0
  9
$INTERSECTIONDISPLAY
280
     0
  9
$INTERSECTIONCOLOR
 70
   257
  9
$DIMASSOC
280
     2
  9
$PROJECTNAME
  1

  0
ENDSEC
  0
SECTION
  2
CLASSES
  0
CLASS
  1
ACDBDICTIONARYWDFLT
  2
AcDbDictionaryWithDefault
  3
ObjectDBX Classes
 90
        0
 91
        1
280
     0
281
     0
  0
CLASS
  1
TABLESTYLE
  2
AcDbTableStyle
  3
ObjectDBX Classes
 90
     4095
 91
        1
280
     0
281
     0
  0
CLASS
  1
DICTIONARYVAR
  2
AcDbDictionaryVar
  3
ObjectDBX Classes
 90
        0
 91
        9
280
     0
281
     0
  0
CLASS
  1
DIMASSOC
  2
AcDbDimAssoc
  3
"AcDbDimAssoc|Product Desc:     AcDim ARX App For Dimension|Company:          Autodesk, Inc.|WEB Address:      www.autodesk.com"
 90
        0
 91
        0
280
     0
281
     0
  0
CLASS
  1
SORTENTSTABLE
  2
AcDbSortentsTable
  3
ObjectDBX Classes
 90
        0
 91
        1
280
     0
281
     0
  0
CLASS
  1
MATERIAL
  2
AcDbMaterial
  3
ObjectDBX Classes
 90
     1153
 91
        3
280
     0
281
     0
  0
CLASS
  1
VISUALSTYLE
  2
AcDbVisualStyle
  3
ObjectDBX Classes
 90
     4095
 91
       16
280
     0
281
     0
  0
CLASS
  1
SCALE
  2
AcDbScale
  3
ObjectDBX Classes
 90
     1153
 91
       33
280
     0
281
     0
  0
CLASS
  1
MLEADERSTYLE
  2
AcDbMLeaderStyle
  3
ACDB_MLEADERSTYLE_CLASS
 90
     4095
 91
        1
280
     0
281
     0
  0
CLASS
  1
CELLSTYLEMAP
  2
AcDbCellStyleMap
  3
ObjectDBX Classes
 90
     1152
 91
        3
280
     0
281
     0
  0
ENDSEC
  0
SECTION
  2
TABLES
  0
TABLE
  2
VPORT
  5
8
330
0
100
AcDbSymbolTable
 70
     1
  0
VPORT
  5
51BB
330
8
100
AcDbSymbolTableRecord
100
AcDbViewportTableRecord
  2
*Active
 70
     0
 10
0.0
 20
0.0
 11
1.0
 21
1.0
 12
-11247.38684680477
 22
-4021.167653123458
 13
0.0
 23
0.0
 14
10.0
 24
10.0
 15
10.0
 25
10.0
 16
0.0
 26
0.0
 36
1.0
 17
0.0
 27
0.0
 37
0.0
 40
3381.237496317425
 41
1.797421731123388
 42
50.0
 43
0.0
 44
0.0
 50
0.0
 51
0.0
 71
     0
 72
   100
 73
     1
 74
     0
 75
     0
 76
     0
 77
     0
 78
     0
281
     0
 65
     1
110
0.0
120
0.0
130
0.0
111
1.0
121
0.0
131
0.0
112
0.0
122
1.0
132
0.0
 79
     0
146
0.0
  0
ENDTAB
  0
TABLE
  2
LTYPE
  5
5
330
0
100
AcDbSymbolTable
 70
     2
  0
LTYPE
  5
13
330
5
100
AcDbSymbolTableRecord
100
AcDbLinetypeTableRecord
  2
ByBlock
 70
     0
  3

 72
    65
 73
     0
 40
0.0
  0
LTYPE
  5
14
330
5
100
AcDbSymbolTableRecord
100
AcDbLinetypeTableRecord
  2
ByLayer
 70
     0
  3

 72
    65
 73
     0
 40
0.0
  0
LTYPE
  5
15
330
5
100
AcDbSymbolTableRecord
100
AcDbLinetypeTableRecord
  2
CONTINUOUS
 70
     0
  3
Solid line
 72
    65
 73
     0
 40
0.0
  0
ENDTAB
  0
TABLE
  2
LAYER
  5
2
330
0
100
AcDbSymbolTable
 70
     6
  0
LAYER
  5
10
102
{ACAD_XDICTIONARY
360
520E
102
}
330
2
100
AcDbSymbolTableRecord
100
AcDbLayerTableRecord
  2
0
 70
     0
 62
     7
  6
CONTINUOUS
370
    -3
390
F
  0
LAYER
  5
31
102
{ACAD_XDICTIONARY
360
5210
102
}
330
2
100
AcDbSymbolTableRecord
100
AcDbLayerTableRecord
  2
CORTE
 70
     0
 62
     1
  6
CONTINUOUS
370
    -3
390
F
  0
LAYER
  5
32
102
{ACAD_XDICTIONARY
360
5212
102
}
330
2
100
AcDbSymbolTableRecord
100
AcDbLayerTableRecord
  2
CORTE1
 70
     0
 62
     5
  6
CONTINUOUS
370
    -3
390
F
  0
LAYER
  5
33
102
{ACAD_XDICTIONARY
360
5214
102
}
330
2
100
AcDbSymbolTableRecord
100
AcDbLayerTableRecord
  2
DIBU
 70
     0
 62
     7
  6
CONTINUOUS
370
    -3
390
F
  0
LAYER
  5
34
102
{ACAD_XDICTIONARY
360
5216
102
}
330
2
100
AcDbSymbolTableRecord
100
AcDbLayerTableRecord
  2
AUX
 70
     0
 62
     7
  6
CONTINUOUS
370
    -3
390
F
  0
LAYER
  5
35
330
2
100
AcDbSymbolTableRecord
100
AcDbLayerTableRecord
  2
DEFPOINTS
 70
     0
 62
     7
  6
CONTINUOUS
290
     0
370
    -3
390
F
  0
ENDTAB
  0
TABLE
  2
STYLE
  5
3
330
0
100
AcDbSymbolTable
 70
     1
  0
STYLE
  5
11
330
3
100
AcDbSymbolTableRecord
100
AcDbTextStyleTableRecord
  2
STANDARD
 70
     0
 40
0.0
 41
1.0
 50
0.0
 71
     0
 42
40.0
  3
ARIALUNI.TTF
  4

1001
ACAD
1000
@Arial Unicode MS
1071
       34
  0
ENDTAB
  0
TABLE
  2
VIEW
  5
6
330
0
100
AcDbSymbolTable
 70
     0
  0
ENDTAB
  0
TABLE
  2
UCS
  5
7
330
0
100
AcDbSymbolTable
 70
     0
  0
ENDTAB
  0
TABLE
  2
APPID
  5
9
330
0
100
AcDbSymbolTable
 70
     7
  0
APPID
  5
12
330
9
100
AcDbSymbolTableRecord
100
AcDbRegAppTableRecord
  2
ACAD
 70
     0
  0
APPID
  5
4B8D
330
9
100
AcDbSymbolTableRecord
100
AcDbRegAppTableRecord
  2
ACAD_PSEXT
 70
     0
  0
APPID
  5
520A
330
9
100
AcDbSymbolTableRecord
100
AcDbRegAppTableRecord
  2
ACAD_MLEADERVER
 70
     0
  0
APPID
  5
5220
330
9
100
AcDbSymbolTableRecord
100
AcDbRegAppTableRecord
  2
ACAD_EXEMPT_FROM_CAD_STANDARDS
 70
     0
  0
APPID
  5
52CA
330
9
100
AcDbSymbolTableRecord
100
AcDbRegAppTableRecord
  2
AcadAnnoPO
 70
     0
  0
APPID
  5
52CC
330
9
100
AcDbSymbolTableRecord
100
AcDbRegAppTableRecord
  2
ACAD_DSTYLE_DIMJAG
 70
     0
  0
APPID
  5
52CD
330
9
100
AcDbSymbolTableRecord
100
AcDbRegAppTableRecord
  2
ACAD_DSTYLE_DIMTALN
 70
     0
  0
ENDTAB
  0
TABLE
  2
DIMSTYLE
  5
A
330
0
100
AcDbSymbolTable
 70
     2
100
AcDbDimStyleTable
 71
     1
340
4AF2
  0
DIMSTYLE
105
4AF2
330
A
100
AcDbSymbolTableRecord
100
AcDbDimStyleTableRecord
  2
Standard
 70
     0
340
11
  0
ENDTAB
  0
TABLE
  2
BLOCK_RECORD
  5
1
330
0
100
AcDbSymbolTable
 70
     1
  0
BLOCK_RECORD
  5
22
102
{ACAD_XDICTIONARY
360
512A
102
}
330
1
100
AcDbSymbolTableRecord
100
AcDbBlockTableRecord
  2
*Model_Space
340
25
  0
BLOCK_RECORD
  5
1E
330
1
100
AcDbSymbolTableRecord
100
AcDbBlockTableRecord
  2
*Paper_Space
340
21
  0
ENDTAB
  0
ENDSEC
  0
SECTION
  2
BLOCKS
  0
BLOCK
  5
38
330
22
100
AcDbEntity
  8
0
100
AcDbBlockBegin
  2
*Model_Space
 70
     0
 10
0.0
 20
0.0
 30
0.0
  3
*Model_Space
  1

  0
ENDBLK
  5
39
330
22
100
AcDbEntity
  8
0
100
AcDbBlockEnd
  0
BLOCK
  5
36
330
1E
100
AcDbEntity
 67
     1
  8
0
100
AcDbBlockBegin
  2
*Paper_Space
 70
     0
 10
0.0
 20
0.0
 30
0.0
  3
*Paper_Space
  1

  0
ENDBLK
  5
37
330
1E
100
AcDbEntity
 67
     1
  8
0
100
AcDbBlockEnd
  0
ENDSEC
  0
SECTION
  2
ENTITIES
  0
LINE
  5
55A
330
22
100
AcDbEntity
  8
DIBU
100
AcDbLine
 10
-13551.31506
 20
-3075.095368
 30
0.0
 11
-13551.31506
 21
-3175.695357
 31
0.0
  0
LINE
  5
55B
330
22
100
AcDbEntity
  8
DIBU
100
AcDbLine
 10
-13551.31506
 20
-3175.695357
 30
0.0
 11
-13251.315054
 21
-3175.695357
 31
0.0
  0
LINE
  5
55D
330
22
100
AcDbEntity
  8
DIBU
100
AcDbLine
 10
-13251.315054
 20
-3075.095368
 30
0.0
 11
-13551.31506
 21
-3075.095368
 31
0.0
  0
LINE
  5
A36
330
22
100
AcDbEntity
  8
DIBU
100
AcDbLine
 10
-13041.315059
 20
-3075.095357
 30
0.0
 11
-13551.31506
 21
-3075.095357
 31
0.0
  0
LINE
  5
A37
330
22
100
AcDbEntity
  8
DIBU
100
AcDbLine
 10
-13551.31506
 20
-3075.095357
 30
0.0
 11
-9486.314976
 21
-3075.095357000001
 31
0.0
  0
LINE
  5
A39
330
22
100
AcDbEntity
  8
DIBU
100
AcDbLine
 10
-9486.314976
 20
-2974.495372
 30
0.0
 11
-13551.31506
 21
-2974.495372
 31
0.0
  0
LINE
  5
A3A
330
22
100
AcDbEntity
  8
DIBU
100
AcDbLine
 10
-13551.31506
 20
-2974.495372
 30
0.0
 11
-13041.315059
 21
-2974.495372
 31
0.0
  0
LINE
  5
A3C
330
22
100
AcDbEntity
  8
DIBU
100
AcDbLine
 10
-13551.31506
 20
-2974.495372
 30
0.0
 11
-13551.31506
 21
-3075.095357
 31
0.0
  0
LINE
  5
A3D
330
22
100
AcDbEntity
  8
DIBU
100
AcDbLine
 10
-13551.31506
 20
-3075.095357
 30
0.0
 11
-13551.31506
 21
-2874.495372000001
 31
0.0
  0
LINE
  5
B4D
330
22
100
AcDbEntity
  8
DIBU
100
AcDbLine
 10
-13551.31506
 20
-3175.695357
 30
0.0
 11
-9486.314976
 21
-3175.695357
 31
0.0
  0
LINE
  5
B4F
330
22
100
AcDbEntity
  8
DIBU
100
AcDbLine
 10
-13051.31506
 20
-3276.295354
 30
0.0
 11
-13551.31506
 21
-3276.295354
 31
0.0
  0
LINE
  5
B50
330
22
100
AcDbEntity
  8
DIBU
100
AcDbLine
 10
-13551.31506
 20
-3276.295354
 30
0.0
 11
-13551.31506
 21
-3175.695357
 31
0.0
  0
LINE
  5
1376
330
22
100
AcDbEntity
  8
DIBU
100
AcDbLine
 10
-13551.31506
 20
-3276.295354
 30
0.0
 11
-13551.31506
 21
-3376.89535
 31
0.0
  0
LINE
  5
1377
330
22
100
AcDbEntity
  8
DIBU
100
AcDbLine
 10
-13551.31506
 20
-3376.89535
 30
0.0
 11
-9486.314976
 21
-3376.89535
 31
0.0
  0
LINE
  5
1379
330
22
100
AcDbEntity
  8
DIBU
100
AcDbLine
 10
-9486.314976
 20
-3276.295354
 30
0.0
 11
-13551.31506
 21
-3276.295354
 31
0.0
  0
LINE
  5
1C12
330
22
100
AcDbEntity
  8
DIBU
100
AcDbLine
 10
-13551.31506
 20
-3376.89535
 30
0.0
 11
-13551.31506
 21
-3477.495339
 31
0.0
  0
LINE
  5
1C13
330
22
100
AcDbEntity
  8
DIBU
100
AcDbLine
 10
-13551.31506
 20
-3477.495339
 30
0.0
 11
-13251.315054
 21
-3477.495339
 31
0.0
  0
LINE
  5
1C15
330
22
100
AcDbEntity
  8
DIBU
100
AcDbLine
 10
-13251.315054
 20
-3376.89535
 30
0.0
 11
-13551.31506
 21
-3376.89535
 31
0.0
  0
LINE
  5
1D26
330
22
100
AcDbEntity
  8
DIBU
100
AcDbLine
 10
-12741.315053
 20
-3477.495335
 30
0.0
 11
-13251.315054
 21
-3477.495335
 31
0.0
  0
LINE
  5
1D27
330
22
100
AcDbEntity
  8
DIBU
100
AcDbLine
 10
-13251.315054
 20
-3477.495335
 30
0.0
 11
-9486.314976
 21
-3477.495335
 31
0.0
  0
LINE
  5
1D2A
330
22
100
AcDbEntity
  8
DIBU
100
AcDbLine
 10
-13251.315054
 20
-3376.89535
 30
0.0
 11
-12741.315053
 21
-3376.89535
 31
0.0
  0
LINE
  5
2207
330
22
100
AcDbEntity
  8
DIBU
100
AcDbLine
 10
-9486.314976
 20
-4081.095367
 30
0.0
 11
-9486.314976
 21
-2874.495372
 31
0.0
  0
LINE
  5
25C2
330
22
100
AcDbEntity
  8
DIBU
100
AcDbLine
 10
-13041.315059
 20
-3578.095339
 30
0.0
 11
-13551.31506
 21
-3578.095339
 31
0.0
  0
LINE
  5
25C3
330
22
100
AcDbEntity
  8
DIBU
100
AcDbLine
 10
-13551.31506
 20
-3578.095339
 30
0.0
 11
-12786.315059
 21
-3578.095339
 31
0.0
  0
LINE
  5
25C5
330
22
100
AcDbEntity
  8
DIBU
100
AcDbLine
 10
-12786.315059
 20
-3477.495354000001
 30
0.0
 11
-13551.31506
 21
-3477.495354000001
 31
0.0
  0
LINE
  5
25C6
330
22
100
AcDbEntity
  8
DIBU
100
AcDbLine
 10
-13551.31506
 20
-3477.495354000001
 30
0.0
 11
-13041.315059
 21
-3477.495354000001
 31
0.0
  0
LINE
  5
25C7
330
22
100
AcDbEntity
  8
DIBU
100
AcDbLine
 10
-13041.315059
 20
-3477.495354000001
 30
0.0
 11
-13551.31506
 21
-3477.495354000001
 31
0.0
  0
LINE
  5
25C8
330
22
100
AcDbEntity
  8
DIBU
100
AcDbLine
 10
-13551.31506
 20
-3477.495354000001
 30
0.0
 11
-13551.31506
 21
-3578.095339
 31
0.0
  0
LINE
  5
25C9
330
22
100
AcDbEntity
  8
DIBU
100
AcDbLine
 10
-13551.31506
 20
-3578.095339
 30
0.0
 11
-13551.31506
 21
-3477.495354000001
 31
0.0
  0
LINE
  5
26D9
330
22
100
AcDbEntity
  8
DIBU
100
AcDbLine
 10
-13551.31506
 20
-3678.695339
 30
0.0
 11
-13051.31506
 21
-3678.695339
 31
0.0
  0
LINE
  5
26DB
330
22
100
AcDbEntity
  8
DIBU
100
AcDbLine
 10
-13051.31506
 20
-3779.295335
 30
0.0
 11
-13551.31506
 21
-3779.295335
 31
0.0
  0
LINE
  5
26DC
330
22
100
AcDbEntity
  8
DIBU
100
AcDbLine
 10
-13551.31506
 20
-3779.295335
 30
0.0
 11
-13551.31506
 21
-3678.695339
 31
0.0
  0
LINE
  5
2F02
330
22
100
AcDbEntity
  8
DIBU
100
AcDbLine
 10
-13551.31506
 20
-3779.295335
 30
0.0
 11
-13551.31506
 21
-3879.895331
 31
0.0
  0
LINE
  5
2F03
330
22
100
AcDbEntity
  8
DIBU
100
AcDbLine
 10
-13551.31506
 20
-3879.895331
 30
0.0
 11
-12551.31506
 21
-3879.895331
 31
0.0
  0
LINE
  5
2F05
330
22
100
AcDbEntity
  8
DIBU
100
AcDbLine
 10
-9486.314976
 20
-3779.295335
 30
0.0
 11
-13551.31506
 21
-3779.295335
 31
0.0
  0
LINE
  5
367F
330
22
100
AcDbEntity
  8
DIBU
100
AcDbLine
 10
-13551.31506
 20
-3879.895331
 30
0.0
 11
-13551.31506
 21
-3980.495382
 31
0.0
  0
LINE
  5
3680
330
22
100
AcDbEntity
  8
DIBU
100
AcDbLine
 10
-13551.31506
 20
-3980.495382
 30
0.0
 11
-9486.314976
 21
-3980.495382
 31
0.0
  0
LINE
  5
3682
330
22
100
AcDbEntity
  8
DIBU
100
AcDbLine
 10
-9486.314976
 20
-3879.895331
 30
0.0
 11
-13551.31506
 21
-3879.895331
 31
0.0
  0
LINE
  5
3ADD
330
22
100
AcDbEntity
  8
DIBU
100
AcDbLine
 10
-13551.31506
 20
-3578.095339
 30
0.0
 11
-13551.31506
 21
-3678.695389
 31
0.0
  0
LINE
  5
3ADE
330
22
100
AcDbEntity
  8
DIBU
100
AcDbLine
 10
-13551.31506
 20
-3678.695389
 30
0.0
 11
-9486.314976
 21
-3678.695389
 31
0.0
  0
LINE
  5
3AE0
330
22
100
AcDbEntity
  8
DIBU
100
AcDbLine
 10
-9486.314976
 20
-3578.095338999999
 30
0.0
 11
-13551.31506
 21
-3578.095339
 31
0.0
  0
LINE
  5
40D8
330
22
100
AcDbEntity
  8
DIBU
100
AcDbLine
 10
-13041.315059
 20
-4081.095367
 30
0.0
 11
-13551.31506
 21
-4081.095367
 31
0.0
  0
LINE
  5
40D9
330
22
100
AcDbEntity
  8
DIBU
100
AcDbLine
 10
-13551.31505999999
 20
-4081.095367
 30
0.0
 11
-9486.314976
 21
-4081.095367
 31
0.0
  0
LINE
  5
40DB
330
22
100
AcDbEntity
  8
DIBU
100
AcDbLine
 10
-12786.315059
 20
-3980.495382
 30
0.0
 11
-13551.31506
 21
-3980.495382
 31
0.0
  0
LINE
  5
40DC
330
22
100
AcDbEntity
  8
DIBU
100
AcDbLine
 10
-13551.31506
 20
-3980.495382
 30
0.0
 11
-13041.315059
 21
-3980.495382
 31
0.0
  0
LINE
  5
40DD
330
22
100
AcDbEntity
  8
DIBU
100
AcDbLine
 10
-13041.315059
 20
-3980.495382
 30
0.0
 11
-13551.31506
 21
-3980.495382
 31
0.0
  0
LINE
  5
40DE
330
22
100
AcDbEntity
  8
DIBU
100
AcDbLine
 10
-13551.31506
 20
-3980.495382
 30
0.0
 11
-13551.31506
 21
-4081.095367
 31
0.0
  0
LINE
  5
40DF
330
22
100
AcDbEntity
  8
DIBU
100
AcDbLine
 10
-13551.31505999999
 20
-4081.095367
 30
0.0
 11
-13551.31506
 21
-3980.495382
 31
0.0
  0
LINE
  5
41F2
330
22
100
AcDbEntity
  8
DIBU
100
AcDbLine
 10
-13251.315054
 20
-4081.095377999999
 30
0.0
 11
-13551.31505999999
 21
-4081.095377999999
 31
0.0
  0
LINE
  5
47E2
330
22
100
AcDbEntity
  8
AUX
100
AcDbLine
 10
-13551.31506
 20
-4231.695367
 30
0.0
 11
-13551.31506
 21
-4622.757867
 31
0.0
  0
LINE
  5
47E3
330
22
100
AcDbEntity
  8
AUX
100
AcDbLine
 10
-9486.314976
 20
-4231.695363
 30
0.0
 11
-9486.314976
 21
-4622.757867
 31
0.0
  0
LINE
  5
47E4
330
22
100
AcDbEntity
  8
AUX
100
AcDbLine
 10
-13551.31506
 20
-4572.757867
 30
0.0
 11
-9486.314976
 21
-4572.757867
 31
0.0
  0
LINE
  5
47E5
330
22
100
AcDbEntity
  8
AUX
100
AcDbLine
 10
-13451.31506
 20
-4589.427867
 30
0.0
 11
-13551.31506
 21
-4572.757867
 31
0.0
  0
LINE
  5
47E6
330
22
100
AcDbEntity
  8
AUX
100
AcDbLine
 10
-13551.31506
 20
-4572.757867
 30
0.0
 11
-13451.31506
 21
-4556.087867
 31
0.0
  0
LINE
  5
47E7
330
22
100
AcDbEntity
  8
AUX
100
AcDbLine
 10
-13451.31506
 20
-4556.087867
 30
0.0
 11
-13451.31506
 21
-4589.427867
 31
0.0
  0
LINE
  5
47E8
330
22
100
AcDbEntity
  8
AUX
100
AcDbLine
 10
-9586.314976
 20
-4556.087867
 30
0.0
 11
-9486.314976
 21
-4572.757867
 31
0.0
  0
LINE
  5
47E9
330
22
100
AcDbEntity
  8
AUX
100
AcDbLine
 10
-9486.314976
 20
-4572.757867
 30
0.0
 11
-9586.314976
 21
-4589.427867
 31
0.0
  0
LINE
  5
47EA
330
22
100
AcDbEntity
  8
AUX
100
AcDbLine
 10
-9586.314976
 20
-4589.427867
 30
0.0
 11
-9586.314976
 21
-4556.087867
 31
0.0
  0
LINE
  5
47EB
330
22
100
AcDbEntity
  8
AUX
100
AcDbLine
 10
-9436.314976
 20
-2874.495380000001
 30
0.0
 11
-8943.748538306616
 21
-2874.495380000001
 31
0.0
  0
LINE
  5
47EC
330
22
100
AcDbEntity
  8
AUX
100
AcDbLine
 10
-9436.314976
 20
-4081.095367
 30
0.0
 11
-8943.748538306616
 21
-4081.095367
 31
0.0
  0
LINE
  5
47ED
330
22
100
AcDbEntity
  8
AUX
100
AcDbLine
 10
-8998.277393599748
 20
-2773.895384000001
 30
0.0
 11
-8998.277393599748
 21
-4081.095367
 31
0.0
  0
LINE
  5
47EE
330
22
100
AcDbEntity
  8
AUX
100
AcDbLine
 10
-9014.947393599749
 20
-2974.49538
 30
0.0
 11
-8998.277393599748
 21
-2874.495380000001
 31
0.0
  0
LINE
  5
47EF
330
22
100
AcDbEntity
  8
AUX
100
AcDbLine
 10
-8998.277393599748
 20
-2874.495380000001
 30
0.0
 11
-8981.607393599748
 21
-2974.49538
 31
0.0
  0
LINE
  5
47F0
330
22
100
AcDbEntity
  8
AUX
100
AcDbLine
 10
-8981.607393599748
 20
-2974.49538
 30
0.0
 11
-9014.947393599749
 21
-2974.49538
 31
0.0
  0
LINE
  5
47F1
330
22
100
AcDbEntity
  8
AUX
100
AcDbLine
 10
-8981.607393599748
 20
-3981.095367000001
 30
0.0
 11
-8998.277393599748
 21
-4081.095367
 31
0.0
  0
LINE
  5
47F2
330
22
100
AcDbEntity
  8
AUX
100
AcDbLine
 10
-8998.277393599748
 20
-4081.095367
 30
0.0
 11
-9014.947393599749
 21
-3981.095367000001
 31
0.0
  0
LINE
  5
47F3
330
22
100
AcDbEntity
  8
AUX
100
AcDbLine
 10
-9014.947393599749
 20
-3981.095367000001
 30
0.0
 11
-8981.607393599748
 21
-3981.095367000001
 31
0.0
  0
LINE
  5
47FC
330
22
100
AcDbEntity
  8
AUX
100
AcDbLine
 10
-9436.314976
 20
-2975.095368
 30
0.0
 11
-9299.042889
 21
-2975.095368
 31
0.0
  0
LINE
  5
47FD
330
22
100
AcDbEntity
  8
AUX
100
AcDbLine
 10
-9349.042889000001
 20
-2874.495380000001
 30
0.0
 11
-9349.042889000001
 21
-2349.569114
 31
0.0
  0
LINE
  5
47FE
330
22
100
AcDbEntity
  8
AUX
100
AcDbLine
 10
-9332.372889
 20
-2774.495380000001
 30
0.0
 11
-9349.042889000001
 21
-2874.495380000001
 31
0.0
  0
LINE
  5
47FF
330
22
100
AcDbEntity
  8
AUX
100
AcDbLine
 10
-9349.042889000001
 20
-2874.495380000001
 30
0.0
 11
-9365.712889
 21
-2774.495380000001
 31
0.0
  0
LINE
  5
4800
330
22
100
AcDbEntity
  8
AUX
100
AcDbLine
 10
-9365.712889
 20
-2774.495380000001
 30
0.0
 11
-9332.372889
 21
-2774.495380000001
 31
0.0
  0
LINE
  5
4801
330
22
100
AcDbEntity
  8
AUX
100
AcDbLine
 10
-9349.042889000001
 20
-2975.095368
 30
0.0
 11
-9349.042889000001
 21
-3175.095368
 31
0.0
  0
LINE
  5
4802
330
22
100
AcDbEntity
  8
AUX
100
AcDbLine
 10
-9365.712889
 20
-3075.095368
 30
0.0
 11
-9349.042889000001
 21
-2975.095368
 31
0.0
  0
LINE
  5
4803
330
22
100
AcDbEntity
  8
AUX
100
AcDbLine
 10
-9349.042889000001
 20
-2975.095368
 30
0.0
 11
-9332.372889
 21
-3075.095368
 31
0.0
  0
LINE
  5
4804
330
22
100
AcDbEntity
  8
AUX
100
AcDbLine
 10
-9332.372889
 20
-3075.095368
 30
0.0
 11
-9365.712889
 21
-3075.095368
 31
0.0
  0
TEXT
  5
4815
330
22
100
AcDbEntity
  8
AUX
100
AcDbText
 10
-13690.399614
 20
-2349.381088
 30
0.0
 40
150.0
  1

100
AcDbText
  0
TEXT
  5
4816
330
22
100
AcDbEntity
  8
AUX
100
AcDbText
 10
-11702.206627
 20
-4532.308311082107
 30
0.0
 40
100.0
  1
4000
100
AcDbText
  0
TEXT
  5
4817
330
22
100
AcDbEntity
  8
AUX
100
AcDbText
 10
-9045.570364280534
 20
-3670.488188461062
 30
0.0
 40
100.0
  1
1200
 50
90.0
100
AcDbText
  0
TEXT
  5
4819
330
22
100
AcDbEntity
  8
AUX
100
AcDbText
 10
-9389.512601450279
 20
-2708.799884
 30
0.0
 40
100.0
  1
100
 50
90.0
100
AcDbText
  0
TEXT
  5
481C
330
22
100
AcDbEntity
  8
AUX
100
AcDbText
 10
-13366.623453
 20
-5131.436068
 30
0.0
 40
70.0
  1

100
AcDbText
  0
TEXT
  5
481E
330
22
100
AcDbEntity
  8
AUX
100
AcDbText
 10
-13366.623453
 20
-5341.436068
 30
0.0
 40
70.0
  1

100
AcDbText
  0
TEXT
  5
4824
330
22
100
AcDbEntity
  8
AUX
100
AcDbText
 10
-13366.623453
 20
-5971.436068
 30
0.0
 40
70.0
  1

100
AcDbText
  0
POLYLINE
  5
4ECD
330
22
100
AcDbEntity
  8
0
100
AcDb2dPolyline
 66
     1
 10
0.0
 20
0.0
 30
0.0
 70
     2
  0
VERTEX
  5
4ECE
330
4ECD
100
AcDbEntity
  8
0
100
AcDbVertex
100
AcDb2dVertex
 10
-12292.65839500387
 20
-5262.307149760678
 30
0.0
 42
-0.1215994988457389
  0
VERTEX
  5
4ECF
330
4ECD
100
AcDbEntity
  8
0
100
AcDbVertex
100
AcDb2dVertex
 10
-12210.98954862017
 20
-5271.859169626313
 30
0.0
 42
0.1056979417585127
 70
     1
  0
VERTEX
  5
4ED0
330
4ECD
100
AcDbEntity
  8
0
100
AcDbVertex
100
AcDb2dVertex
 10
-12190.4007358267
 20
-5272.307149760678
 30
0.0
 42
0.1078418749257769
  0
VERTEX
  5
4ED1
330
4ECD
100
AcDbEntity
  8
0
100
AcDbVertex
100
AcDb2dVertex
 10
-12175.30762337192
 20
-5265.859734321473
 30
0.0
 42
-0.1546478595467482
 70
     1
  0
VERTEX
  5
4ED2
330
4ECD
100
AcDbEntity
  8
0
100
AcDbVertex
100
AcDb2dVertex
 10
-12164.28173604066
 20
-5262.307149760678
 30
0.0
 42
-0.1804007426235365
  0
VERTEX
  5
4ED3
330
4ECD
100
AcDbEntity
  8
0
100
AcDbVertex
100
AcDb2dVertex
 10
-12151.63292059913
 20
-5266.954826923915
 30
0.0
 42
0.1669612857236485
 70
     1
  0
VERTEX
  5
4ED4
330
4ECD
100
AcDbEntity
  8
0
100
AcDbVertex
100
AcDb2dVertex
 10
-12138.16278667702
 20
-5272.307149760678
 30
0.0
 42
0.1377807434661302
  0
VERTEX
  5
4ED5
330
4ECD
100
AcDbEntity
  8
0
100
AcDbVertex
100
AcDb2dVertex
 10
-12120.10939376521
 20
-5268.146846073767
 30
0.0
 42
-0.1158283502867649
 70
     1
  0
VERTEX
  5
4ED6
330
4ECD
100
AcDbEntity
  8
0
100
AcDbVertex
100
AcDb2dVertex
 10
-12098.98428699797
 20
-5262.307149760678
 30
0.0
 42
-0.1260058766128204
  0
VERTEX
  5
4ED7
330
4ECD
100
AcDbEntity
  8
0
100
AcDbVertex
100
AcDb2dVertex
 10
-12072.62191311766
 20
-5267.97077217643
 30
0.0
 42
0.1416031919178112
 70
     1
  0
VERTEX
  5
4ED8
330
4ECD
100
AcDbEntity
  8
0
100
AcDbVertex
100
AcDb2dVertex
 10
-12048.92292116379
 20
-5272.307149760678
 30
0.0
 42
0.1182297497458096
  0
VERTEX
  5
4ED9
330
4ECD
100
AcDbEntity
  8
0
100
AcDbVertex
100
AcDb2dVertex
 10
-12034.99078683868
 20
-5267.445712475357
 30
0.0
 42
-0.1142582045074363
 70
     1
  0
VERTEX
  5
4EDA
330
4ECD
100
AcDbEntity
  8
0
100
AcDbVertex
100
AcDb2dVertex
 10
-12020.62733806225
 20
-5262.307149760678
 30
0.0
 42
-0.2321895392944741
  0
VERTEX
  5
4EDB
330
4ECD
100
AcDbEntity
  8
0
100
AcDbVertex
100
AcDb2dVertex
 10
-12003.13733375297
 20
-5268.499103523835
 30
0.0
 42
0.2823827117993129
 70
     1
  0
VERTEX
  5
4EDC
330
4ECD
100
AcDbEntity
  8
0
100
AcDbVertex
100
AcDb2dVertex
 10
-11987.9786387521
 20
-5272.307149760678
 30
0.0
 42
0.1766976244461863
  0
VERTEX
  5
4EDD
330
4ECD
100
AcDbEntity
  8
0
100
AcDbVertex
100
AcDb2dVertex
 10
-11981.44103681525
 20
-5267.294815903653
 30
0.0
 42
-0.1773270153938223
 70
     1
  0
VERTEX
  5
4EDE
330
4ECD
100
AcDbEntity
  8
0
100
AcDbVertex
100
AcDb2dVertex
 10
-11974.91913885908
 20
-5262.307149760678
 30
0.0
 42
-0.2058351738198912
  0
VERTEX
  5
4EDF
330
4ECD
100
AcDbEntity
  8
0
100
AcDbVertex
100
AcDb2dVertex
 10
-11953.78994990841
 20
-5264.515242159973
 30
0.0
 42
0.1331294588025776
 70
     1
  0
VERTEX
  5
4EE0
330
4ECD
100
AcDbEntity
  8
0
100
AcDbVertex
100
AcDb2dVertex
 10
-11922.6811897094
 20
-5272.307149760678
 30
0.0
 42
0.0832255166851424
  0
VERTEX
  5
4EE1
330
4ECD
100
AcDbEntity
  8
0
100
AcDbVertex
100
AcDb2dVertex
 10
-11888.22599379576
 20
-5265.846839447116
 30
0.0
 42
-0.1097242647440611
 70
     1
  0
VERTEX
  5
4EE2
330
4ECD
100
AcDbEntity
  8
0
100
AcDbVertex
100
AcDb2dVertex
 10
-11861.73685687532
 20
-5262.30714976068
 30
0.0
 42
-0.1094066769750613
  0
VERTEX
  5
4EE3
330
4ECD
100
AcDbEntity
  8
0
100
AcDbVertex
100
AcDb2dVertex
 10
-11844.97017262635
 20
-5267.561369684641
 30
0.0
 42
0.1161466597373166
 70
     1
  0
VERTEX
  5
4EE4
330
4ECD
100
AcDbEntity
  8
0
100
AcDbVertex
100
AcDb2dVertex
 10
-11829.08815756516
 20
-5272.307149760678
 30
0.0
 42
0.1635239807755977
  0
VERTEX
  5
4EE5
330
4ECD
100
AcDbEntity
  8
0
100
AcDbVertex
100
AcDb2dVertex
 10
-11810.53136823448
 20
-5267.26982866819
 30
0.0
 42
-0.1646740425977135
 70
     1
  0
VERTEX
  5
4EE6
330
4ECD
100
AcDbEntity
  8
0
100
AcDbVertex
100
AcDb2dVertex
 10
-11792.08624120162
 20
-5262.307149760678
 30
0.0
 42
-0.1056313494205058
  0
VERTEX
  5
4EE7
330
4ECD
100
AcDbEntity
  8
0
100
AcDbVertex
100
AcDb2dVertex
 10
-11777.43529006312
 20
-5266.426247207853
 30
0.0
 42
0.0845682404093054
 70
     1
  0
VERTEX
  5
4EE8
330
4ECD
100
AcDbEntity
  8
0
100
AcDbVertex
100
AcDb2dVertex
 10
-11759.43754189146
 20
-5272.307149760678
 30
0.0
 42
0.1575342193449952
  0
VERTEX
  5
4EE9
330
4ECD
100
AcDbEntity
  8
0
100
AcDbVertex
100
AcDb2dVertex
 10
-11723.89993594783
 20
-5266.374510741233
 30
0.0
 42
-0.177447294337322
 70
     1
  0
VERTEX
  5
4EEA
330
4ECD
100
AcDbEntity
  8
0
100
AcDbVertex
100
AcDb2dVertex
 10
-11691.96350953326
 20
-5262.307149760678
 30
0.0
 42
-0.0917559328231345
  0
VERTEX
  5
4EEB
330
4ECD
100
AcDbEntity
  8
0
100
AcDbVertex
100
AcDb2dVertex
 10
-11679.28663236093
 20
-5267.780208261698
 30
0.0
 42
0.1046141200079548
 70
     1
  0
VERTEX
  5
4EEC
330
4ECD
100
AcDbEntity
  8
0
100
AcDbVertex
100
AcDb2dVertex
 10
-11668.02109306273
 20
-5272.307149760678
 30
0.0
 42
0.1516230715845765
  0
VERTEX
  5
4EED
330
4ECD
100
AcDbEntity
  8
0
100
AcDbVertex
100
AcDb2dVertex
 10
-11640.89361901191
 20
-5268.834152446227
 30
0.0
 42
-0.1193723253288798
 70
     1
  0
VERTEX
  5
4EEE
330
4ECD
100
AcDbEntity
  8
0
100
AcDbVertex
100
AcDb2dVertex
 10
-11607.07681065104
 20
-5262.307149760678
 30
0.0
 42
-0.0610149335770133
  0
VERTEX
  5
4EEF
330
4ECD
100
AcDbEntity
  8
0
100
AcDbVertex
100
AcDb2dVertex
 10
-11577.62576577984
 20
-5267.327246256246
 30
0.0
 42
0.0613026562254159
 70
     1
  0
VERTEX
  5
4EF0
330
4ECD
100
AcDbEntity
  8
0
100
AcDbVertex
100
AcDb2dVertex
 10
-11548.30906113246
 20
-5272.307149760678
 30
0.0
 42
0.1142529691874242
  0
VERTEX
  5
4EF1
330
4ECD
100
AcDbEntity
  8
0
100
AcDbVertex
100
AcDb2dVertex
 10
-11513.55288582077
 20
-5265.921100580901
 30
0.0
 42
-0.1421988557679846
 70
     1
  0
VERTEX
  5
4EF2
330
4ECD
100
AcDbEntity
  8
0
100
AcDbVertex
100
AcDb2dVertex
 10
-11485.18819540527
 20
-5262.307149760678
 30
0.0
 42
-0.0996974748390703
  0
VERTEX
  5
4EF3
330
4ECD
100
AcDbEntity
  8
0
100
AcDbVertex
100
AcDb2dVertex
 10
-11472.79957965679
 20
-5266.892834199349
 30
0.0
 42
0.0890552141269125
 70
     1
  0
VERTEX
  5
4EF4
330
4ECD
100
AcDbEntity
  8
0
100
AcDbVertex
100
AcDb2dVertex
 10
-11459.06924604162
 20
-5272.307149760678
 30
0.0
 42
0.169585575600112
  0
VERTEX
  5
4EF5
330
4ECD
100
AcDbEntity
  8
0
100
AcDbVertex
100
AcDb2dVertex
 10
-11427.66475000173
 20
-5267.945431077055
 30
0.0
 42
-0.1558100318209038
 70
     1
  0
VERTEX
  5
4EF6
330
4ECD
100
AcDbEntity
  8
0
100
AcDbVertex
100
AcDb2dVertex
 10
-11393.77174657653
 20
-5262.307149760678
 30
0.0
 42
-0.0845160049936214
  0
VERTEX
  5
4EF7
330
4ECD
100
AcDbEntity
  8
0
100
AcDbVertex
100
AcDb2dVertex
 10
-11376.03183119155
 20
-5268.046901970088
 30
0.0
 42
0.1019584614413041
 70
     1
  0
VERTEX
  5
4EF8
330
4ECD
100
AcDbEntity
  8
0
100
AcDbVertex
100
AcDb2dVertex
 10
-11361.12304726639
 20
-5272.307149760678
 30
0.0
 42
0.146842217971711
  0
VERTEX
  5
4EF9
330
4ECD
100
AcDbEntity
  8
0
100
AcDbVertex
100
AcDb2dVertex
 10
-11339.98987701852
 20
-5267.659441411966
 30
0.0
 42
-0.1376189916329282
 70
     1
  0
VERTEX
  5
4EFA
330
4ECD
100
AcDbEntity
  8
0
100
AcDbVertex
100
AcDb2dVertex
 10
-11317.59138095633
 20
-5262.307149760678
 30
0.0
 42
-0.0982599490396583
  0
VERTEX
  5
4EFB
330
4ECD
100
AcDbEntity
  8
0
100
AcDbVertex
100
AcDb2dVertex
 10
-11297.15246401207
 20
-5267.197508482587
 30
0.0
 42
0.0958638244148462
 70
     1
  0
VERTEX
  5
4EFC
330
4ECD
100
AcDbEntity
  8
0
100
AcDbVertex
100
AcDb2dVertex
 10
-11276.23634838416
 20
-5272.307149760678
 30
0.0
 42
0.1086005667570804
  0
VERTEX
  5
4EFD
330
4ECD
100
AcDbEntity
  8
0
100
AcDbVertex
100
AcDb2dVertex
 10
-11246.93612542734
 20
-5267.340964167022
 30
0.0
 42
-0.1079452215061644
 70
     1
  0
VERTEX
  5
4EFE
330
4ECD
100
AcDbEntity
  8
0
100
AcDbVertex
100
AcDb2dVertex
 10
-11217.46864928798
 20
-5262.307149760678
 30
0.0
 42
-0.0697597583604851
  0
VERTEX
  5
4EFF
330
4ECD
100
AcDbEntity
  8
0
100
AcDbVertex
100
AcDb2dVertex
 10
-11196.98509757049
 20
-5266.143801462951
 30
0.0
 42
0.0516485649996907
 70
     1
  0
VERTEX
  5
4F00
330
4ECD
100
AcDbEntity
  8
0
100
AcDbVertex
100
AcDb2dVertex
 10
-11169.58381634691
 20
-5272.307149760678
 30
0.0
 42
0.1918393175343787
  0
VERTEX
  5
4F01
330
4ECD
100
AcDbEntity
  8
0
100
AcDbVertex
100
AcDb2dVertex
 10
-11132.53704609902
 20
-5262.410980461595
 30
0.0
 42
-0.3290381692335023
 70
     1
  0
VERTEX
  5
4F02
330
4ECD
100
AcDbEntity
  8
0
100
AcDbVertex
100
AcDb2dVertex
 10
-11108.63953393521
 20
-5262.307149760678
 30
0.0
 42
-0.1885535251852392
  0
VERTEX
  5
4F03
330
4ECD
100
AcDbEntity
  8
0
100
AcDbVertex
100
AcDb2dVertex
 10
-11105.33732888333
 20
-5267.497233892091
 30
0.0
 42
0.2011959264999968
 70
     1
  0
VERTEX
  5
4F04
330
4ECD
100
AcDbEntity
  8
0
100
AcDbVertex
100
AcDb2dVertex
 10
-11102.10978398871
 20
-5272.307149760678
 30
0.0
 42
0.307066649868549
  0
VERTEX
  5
4F05
330
4ECD
100
AcDbEntity
  8
0
100
AcDbVertex
100
AcDb2dVertex
 10
-11081.68614034806
 20
-5272.038391940525
 30
0.0
 42
-0.1666070656706792
 70
     1
  0
VERTEX
  5
4F06
330
4ECD
100
AcDbEntity
  8
0
100
AcDbVertex
100
AcDb2dVertex
 10
-11047.69525152353
 20
-5262.307149760678
 30
0.0
 42
-0.071087509726107
  0
VERTEX
  5
4F07
330
4ECD
100
AcDbEntity
  8
0
100
AcDbVertex
100
AcDb2dVertex
 10
-11013.38946277199
 20
-5269.021807513173
 30
0.0
 42
0.1012017750060307
 70
     1
  0
VERTEX
  5
4F08
330
4ECD
100
AcDbEntity
  8
0
100
AcDbVertex
100
AcDb2dVertex
 10
-10988.92755242734
 20
-5272.307149760678
 30
0.0
 42
0.1095443914423224
  0
VERTEX
  5
4F09
330
4ECD
100
AcDbEntity
  8
0
100
AcDbVertex
100
AcDb2dVertex
 10
-10971.01635340571
 20
-5267.03178339405
 30
0.0
 42
-0.1166553136387929
 70
     1
  0
VERTEX
  5
4F0A
330
4ECD
100
AcDbEntity
  8
0
100
AcDbVertex
100
AcDb2dVertex
 10
-10954.10221937929
 20
-5262.307149760678
 30
0.0
 42
-0.1414522645600583
  0
VERTEX
  5
4F0B
330
4ECD
100
AcDbEntity
  8
0
100
AcDbVertex
100
AcDb2dVertex
 10
-10935.08125755774
 20
-5266.98030880023
 30
0.0
 42
0.1325674236877124
 70
     1
  0
VERTEX
  5
4F0C
330
4ECD
100
AcDbEntity
  8
0
100
AcDbVertex
100
AcDb2dVertex
 10
-10914.92377012263
 20
-5272.307149760678
 30
0.0
 42
0.1141626951913062
  0
VERTEX
  5
4F0D
330
4ECD
100
AcDbEntity
  8
0
100
AcDbVertex
100
AcDb2dVertex
 10
-10894.64123068112
 20
-5267.502816097258
 30
0.0
 42
-0.1095276496669902
 70
     1
  0
VERTEX
  5
4F0E
330
4ECD
100
AcDbEntity
  8
0
100
AcDbVertex
100
AcDb2dVertex
 10
-10873.56868712808
 20
-5262.307149760678
 30
0.0
 42
-0.1249484503351089
  0
VERTEX
  5
4F0F
330
4ECD
100
AcDbEntity
  8
0
100
AcDbVertex
100
AcDb2dVertex
 10
-10849.8964737894
 20
-5267.726500942834
 30
0.0
 42
0.1351696753946172
 70
     1
  0
VERTEX
  5
4F10
330
4ECD
100
AcDbEntity
  8
0
100
AcDbVertex
100
AcDb2dVertex
 10
-10827.8604879249
 20
-5272.307149760678
 30
0.0
 42
0.1035749583102381
  0
VERTEX
  5
4F11
330
4ECD
100
AcDbEntity
  8
0
100
AcDbVertex
100
AcDb2dVertex
 10
-10811.19019490261
 20
-5267.690421758567
 30
0.0
 42
-0.0944432883189017
 70
     1
  0
VERTEX
  5
4F12
330
4ECD
100
AcDbEntity
  8
0
100
AcDbVertex
100
AcDb2dVertex
 10
-10793.03515487686
 20
-5262.307149760678
 30
0.0
 42
-0.1366411256384178
  0
VERTEX
  5
4F13
330
4ECD
100
AcDbEntity
  8
0
100
AcDbVertex
100
AcDb2dVertex
 10
-10765.05216154912
 20
-5267.158749730999
 30
0.0
 42
0.1333895212108895
 70
     1
  0
VERTEX
  5
4F14
330
4ECD
100
AcDbEntity
  8
0
100
AcDbVertex
100
AcDb2dVertex
 10
-10736.44403909617
 20
-5272.307149760678
 30
0.0
 42
0.1143622111996159
  0
VERTEX
  5
4F15
330
4ECD
100
AcDbEntity
  8
0
100
AcDbVertex
100
AcDb2dVertex
 10
-10718.97521001717
 20
-5266.617037469541
 30
0.0
 42
-0.1337828164323631
 70
     1
  0
VERTEX
  5
4F16
330
4ECD
100
AcDbEntity
  8
0
100
AcDbVertex
100
AcDb2dVertex
 10
-10703.79528936363
 20
-5262.307149760678
 30
0.0
 42
-0.1727923039562317
  0
VERTEX
  5
4F17
330
4ECD
100
AcDbEntity
  8
0
100
AcDbVertex
100
AcDb2dVertex
 10
-10689.93268272552
 20
-5267.079481754675
 30
0.0
 42
0.1645882245404117
 70
     1
  0
VERTEX
  5
4F18
330
4ECD
100
AcDbEntity
  8
0
100
AcDbVertex
100
AcDb2dVertex
 10
-10675.49975668448
 20
-5272.307149760678
 30
0.0
 42
0.1859019781634805
  0
VERTEX
  5
4F19
330
4ECD
100
AcDbEntity
  8
0
100
AcDbVertex
100
AcDb2dVertex
 10
-10661.14237029489
 20
-5267.125548547017
 30
0.0
 42
-0.19290279107567
 70
     1
  0
VERTEX
  5
4F1A
330
4ECD
100
AcDbEntity
  8
0
100
AcDbVertex
100
AcDb2dVertex
 10
-10647.20417358295
 20
-5262.307149760678
 30
0.0
 42
-0.175773981393109
  0
VERTEX
  5
4F1B
330
4ECD
100
AcDbEntity
  8
0
100
AcDbVertex
100
AcDb2dVertex
 10
-10635.21516887707
 20
-5267.323539547919
 30
0.0
 42
0.1764307983159752
 70
     1
  0
VERTEX
  5
4F1C
330
4ECD
100
AcDbEntity
  8
0
100
AcDbVertex
100
AcDb2dVertex
 10
-10623.26175711241
 20
-5272.307149760679
 30
0.0
 42
0.1765992014462564
  0
VERTEX
  5
4F1D
330
4ECD
100
AcDbEntity
  8
0
100
AcDbVertex
100
AcDb2dVertex
 10
-10608.51787397032
 20
-5267.683988360695
 30
0.0
 42
-0.1634550265441355
 70
     1
  0
VERTEX
  5
4F1E
330
4ECD
100
AcDbEntity
  8
0
100
AcDbVertex
100
AcDb2dVertex
 10
-10592.78964111776
 20
-5262.307149760678
 30
0.0
 42
-0.1433278140270253
  0
VERTEX
  5
4F1F
330
4ECD
100
AcDbEntity
  8
0
100
AcDbVertex
100
AcDb2dVertex
 10
-10575.39152602647
 20
-5267.29794395839
 30
0.0
 42
0.14305561679679
 70
     1
  0
VERTEX
  5
4F20
330
4ECD
100
AcDbEntity
  8
0
100
AcDbVertex
100
AcDb2dVertex
 10
-10557.96430806972
 20
-5272.307149760678
 30
0.0
 42
0.1342281184313097
  0
VERTEX
  5
4F21
330
4ECD
100
AcDbEntity
  8
0
100
AcDbVertex
100
AcDb2dVertex
 10
-10541.05137434671
 20
-5267.605342528661
 30
0.0
 42
-0.1258736306675923
 70
     1
  0
VERTEX
  5
4F22
330
4ECD
100
AcDbEntity
  8
0
100
AcDbVertex
100
AcDb2dVertex
 10
-10523.13902544406
 20
-5262.307149760678
 30
0.0
 42
-0.1886489358174883
  0
VERTEX
  5
4F23
330
4ECD
100
AcDbEntity
  8
0
100
AcDbVertex
100
AcDb2dVertex
 10
-10505.44371259448
 20
-5268.482357613756
 30
0.0
 42
0.2332282790389236
 70
     1
  0
VERTEX
  5
4F24
330
4ECD
100
AcDbEntity
  8
0
100
AcDbVertex
100
AcDb2dVertex
 10
-10490.49027571152
 20
-5272.307149760678
 30
0.0
 42
0.1839542225151218
  0
VERTEX
  5
4F25
330
4ECD
100
AcDbEntity
  8
0
100
AcDbVertex
100
AcDb2dVertex
 10
-10483.01084788739
 20
-5267.495176034761
 30
0.0
 42
-0.1747588731694239
 70
     1
  0
VERTEX
  5
4F26
330
4ECD
100
AcDbEntity
  8
0
100
AcDbVertex
100
AcDb2dVertex
 10
-10475.25419250299
 20
-5262.307149760678
 30
0.0
 42
-0.2575360235428277
  0
VERTEX
  5
4F27
330
4ECD
100
AcDbEntity
  8
0
100
AcDbVertex
100
AcDb2dVertex
 10
-10459.86278065532
 20
-5266.411970478753
 30
0.0
 42
0.2212948576908852
 70
     1
  0
VERTEX
  5
4F28
330
4ECD
100
AcDbEntity
  8
0
100
AcDbVertex
100
AcDb2dVertex
 10
-10442.60549319284
 20
-5272.307149760678
 30
0.0
 42
0.1552218350131443
  0
VERTEX
  5
4F29
330
4ECD
100
AcDbEntity
  8
0
100
AcDbVertex
100
AcDb2dVertex
 10
-10430.03278900193
 20
-5266.77707478584
 30
0.0
 42
-0.1756660557390038
 70
     1
  0
VERTEX
  5
4F2A
330
4ECD
100
AcDbEntity
  8
0
100
AcDbVertex
100
AcDb2dVertex
 10
-10418.66307672231
 20
-5262.30714976068
 30
0.0
 42
-0.2408451760976607
  0
VERTEX
  5
4F2B
330
4ECD
100
AcDbEntity
  8
0
100
AcDbVertex
100
AcDb2dVertex
 10
-10407.53720320282
 20
-5267.625276853529
 30
0.0
 42
0.2574992393155402
 70
     1
  0
VERTEX
  5
4F2C
330
4ECD
100
AcDbEntity
  8
0
100
AcDbVertex
100
AcDb2dVertex
 10
-10396.89724356728
 20
-5272.307149760678
 30
0.0
 42
0.2581431002162373
  0
VERTEX
  5
4F2D
330
4ECD
100
AcDbEntity
  8
0
100
AcDbVertex
100
AcDb2dVertex
 10
-10389.16002351517
 20
-5267.072975092871
 30
0.0
 42
-0.2734707940183903
 70
     1
  0
VERTEX
  5
4F2E
330
4ECD
100
AcDbEntity
  8
0
100
AcDbVertex
100
AcDb2dVertex
 10
-10381.66116035876
 20
-5262.307149760678
 30
0.0
 42
-0.3144959623965683
  0
VERTEX
  5
4F2F
330
4ECD
100
AcDbEntity
  8
0
100
AcDbVertex
100
AcDb2dVertex
 10
-10374.06503736006
 20
-5267.253003747864
 30
0.0
 42
0.310490183109198
 70
     1
  0
VERTEX
  5
4F30
330
4ECD
100
AcDbEntity
  8
0
100
AcDbVertex
100
AcDb2dVertex
 10
-10366.42512757263
 20
-5272.307149760678
 30
0.0
 42
0.1538368302178216
  0
VERTEX
  5
4F31
330
4ECD
100
AcDbEntity
  8
0
100
AcDbVertex
100
AcDb2dVertex
 10
-10358.190298975
 20
-5269.551342725046
 30
0.0
 42
-0.3700310140832769
 70
     1
  0
VERTEX
  5
4F32
330
4ECD
100
AcDbEntity
  8
0
100
AcDbVertex
100
AcDb2dVertex
 10
-10292.65839500387
 20
-5262.307149760678
 30
0.0
  0
SEQEND
  5
4F33
330
4ECD
100
AcDbEntity
  8
0
  0
POLYLINE
  5
4F34
330
22
100
AcDbEntity
  8
0
100
AcDb2dPolyline
 66
     1
 10
0.0
 20
0.0
 30
0.0
  0
VERTEX
  5
4F35
330
4F34
100
AcDbEntity
  8
0
100
AcDbVertex
100
AcDb2dVertex
 10
-12292.65839500387
 20
-5273.105577759015
 30
0.0
 42
0.2001611724547608
  0
VERTEX
  5
4F36
330
4F34
100
AcDbEntity
  8
0
100
AcDbVertex
100
AcDb2dVertex
 10
-12374.32724138759
 20
-5271.859169626313
 30
0.0
 42
-0.1056979417585127
  0
VERTEX
  5
4F37
330
4F34
100
AcDbEntity
  8
0
100
AcDbVertex
100
AcDb2dVertex
 10
-12394.91605418106
 20
-5272.307149760678
 30
0.0
 42
-0.1078418749257769
  0
VERTEX
  5
4F38
330
4F34
100
AcDbEntity
  8
0
100
AcDbVertex
100
AcDb2dVertex
 10
-12410.00916663583
 20
-5265.859734321473
 30
0.0
 42
0.1546478595467482
  0
VERTEX
  5
4F39
330
4F34
100
AcDbEntity
  8
0
100
AcDbVertex
100
AcDb2dVertex
 10
-12421.03505396709
 20
-5262.307149760678
 30
0.0
 42
0.1804007426235365
  0
VERTEX
  5
4F3A
330
4F34
100
AcDbEntity
  8
0
100
AcDbVertex
100
AcDb2dVertex
 10
-12433.68386940863
 20
-5266.954826923915
 30
0.0
 42
-0.1669612857236485
  0
VERTEX
  5
4F3B
330
4F34
100
AcDbEntity
  8
0
100
AcDbVertex
100
AcDb2dVertex
 10
-12447.15400333073
 20
-5272.307149760678
 30
0.0
 42
-0.1377807434661302
  0
VERTEX
  5
4F3C
330
4F34
100
AcDbEntity
  8
0
100
AcDbVertex
100
AcDb2dVertex
 10
-12465.20739624255
 20
-5268.146846073767
 30
0.0
 42
0.1158283502867649
  0
VERTEX
  5
4F3D
330
4F34
100
AcDbEntity
  8
0
100
AcDbVertex
100
AcDb2dVertex
 10
-12486.33250300978
 20
-5262.307149760678
 30
0.0
 42
0.1260058766128204
  0
VERTEX
  5
4F3E
330
4F34
100
AcDbEntity
  8
0
100
AcDbVertex
100
AcDb2dVertex
 10
-12512.69487689009
 20
-5267.97077217643
 30
0.0
 42
-0.1416031919178112
  0
VERTEX
  5
4F3F
330
4F34
100
AcDbEntity
  8
0
100
AcDbVertex
100
AcDb2dVertex
 10
-12536.39386884396
 20
-5272.307149760678
 30
0.0
 42
-0.1182297497458096
  0
VERTEX
  5
4F40
330
4F34
100
AcDbEntity
  8
0
100
AcDbVertex
100
AcDb2dVertex
 10
-12550.32600316907
 20
-5267.445712475357
 30
0.0
 42
0.1142582045074363
  0
VERTEX
  5
4F41
330
4F34
100
AcDbEntity
  8
0
100
AcDbVertex
100
AcDb2dVertex
 10
-12564.6894519455
 20
-5262.307149760678
 30
0.0
 42
0.2321895392944741
  0
VERTEX
  5
4F42
330
4F34
100
AcDbEntity
  8
0
100
AcDbVertex
100
AcDb2dVertex
 10
-12582.17945625478
 20
-5268.499103523835
 30
0.0
 42
-0.2823827117993129
  0
VERTEX
  5
4F43
330
4F34
100
AcDbEntity
  8
0
100
AcDbVertex
100
AcDb2dVertex
 10
-12597.33815125565
 20
-5272.307149760678
 30
0.0
 42
-0.1766976244461863
  0
VERTEX
  5
4F44
330
4F34
100
AcDbEntity
  8
0
100
AcDbVertex
100
AcDb2dVertex
 10
-12603.8757531925
 20
-5267.294815903653
 30
0.0
 42
0.1773270153938223
  0
VERTEX
  5
4F45
330
4F34
100
AcDbEntity
  8
0
100
AcDbVertex
100
AcDb2dVertex
 10
-12610.39765114867
 20
-5262.307149760678
 30
0.0
 42
0.2058351738198912
  0
VERTEX
  5
4F46
330
4F34
100
AcDbEntity
  8
0
100
AcDbVertex
100
AcDb2dVertex
 10
-12631.52684009935
 20
-5264.515242159973
 30
0.0
 42
-0.1331294588025776
  0
VERTEX
  5
4F47
330
4F34
100
AcDbEntity
  8
0
100
AcDbVertex
100
AcDb2dVertex
 10
-12662.63560029835
 20
-5272.307149760678
 30
0.0
 42
-0.0832255166851424
  0
VERTEX
  5
4F48
330
4F34
100
AcDbEntity
  8
0
100
AcDbVertex
100
AcDb2dVertex
 10
-12697.09079621199
 20
-5265.846839447116
 30
0.0
 42
0.1097242647440611
  0
VERTEX
  5
4F49
330
4F34
100
AcDbEntity
  8
0
100
AcDbVertex
100
AcDb2dVertex
 10
-12723.57993313243
 20
-5262.30714976068
 30
0.0
 42
0.1094066769750613
  0
VERTEX
  5
4F4A
330
4F34
100
AcDbEntity
  8
0
100
AcDbVertex
100
AcDb2dVertex
 10
-12740.34661738141
 20
-5267.561369684641
 30
0.0
 42
-0.0002339245184536
  0
VERTEX
  5
4F4B
330
4F34
100
AcDbEntity
  8
0
100
AcDbVertex
100
AcDb2dVertex
 10
-12740.37596053046
 20
-5267.578215613461
 30
0.0
 42
-0.1635239807755977
  0
SEQEND
  5
4F4C
330
4F34
100
AcDbEntity
  8
0
  0
POLYLINE
  5
4F4D
330
22
100
AcDbEntity
  8
0
100
AcDb2dPolyline
 66
     1
 10
0.0
 20
0.0
 30
0.0
  0
VERTEX
  5
4F4E
330
4F4D
100
AcDbEntity
  8
0
100
AcDbVertex
100
AcDb2dVertex
 10
-10292.65839500387
 20
-5275.06661564811
 30
0.0
 42
-0.2145828259701203
  0
VERTEX
  5
4F4F
330
4F4D
100
AcDbEntity
  8
0
100
AcDbVertex
100
AcDb2dVertex
 10
-10210.98954862017
 20
-5271.859169626313
 30
0.0
 42
0.1056979417585127
  0
VERTEX
  5
4F50
330
4F4D
100
AcDbEntity
  8
0
100
AcDbVertex
100
AcDb2dVertex
 10
-10190.40073582669
 20
-5272.307149760678
 30
0.0
 42
0.1078418749257769
  0
VERTEX
  5
4F51
330
4F4D
100
AcDbEntity
  8
0
100
AcDbVertex
100
AcDb2dVertex
 10
-10175.30762337192
 20
-5265.859734321473
 30
0.0
 42
-0.1546478595467482
  0
VERTEX
  5
4F52
330
4F4D
100
AcDbEntity
  8
0
100
AcDbVertex
100
AcDb2dVertex
 10
-10164.28173604066
 20
-5262.307149760678
 30
0.0
 42
-0.1804007426235365
  0
VERTEX
  5
4F53
330
4F4D
100
AcDbEntity
  8
0
100
AcDbVertex
100
AcDb2dVertex
 10
-10151.63292059912
 20
-5266.954826923915
 30
0.0
 42
0.1669612857236485
  0
VERTEX
  5
4F54
330
4F4D
100
AcDbEntity
  8
0
100
AcDbVertex
100
AcDb2dVertex
 10
-10138.16278667702
 20
-5272.307149760678
 30
0.0
 42
0.1377807434661302
  0
VERTEX
  5
4F55
330
4F4D
100
AcDbEntity
  8
0
100
AcDbVertex
100
AcDb2dVertex
 10
-10120.10939376521
 20
-5268.146846073767
 30
0.0
 42
-0.1158283502867649
  0
VERTEX
  5
4F56
330
4F4D
100
AcDbEntity
  8
0
100
AcDbVertex
100
AcDb2dVertex
 10
-10098.98428699797
 20
-5262.307149760678
 30
0.0
 42
-0.1260058766128204
  0
VERTEX
  5
4F57
330
4F4D
100
AcDbEntity
  8
0
100
AcDbVertex
100
AcDb2dVertex
 10
-10072.62191311766
 20
-5267.97077217643
 30
0.0
 42
0.1416031919178112
  0
VERTEX
  5
4F58
330
4F4D
100
AcDbEntity
  8
0
100
AcDbVertex
100
AcDb2dVertex
 10
-10048.92292116379
 20
-5272.307149760678
 30
0.0
 42
0.1182297497458096
  0
VERTEX
  5
4F59
330
4F4D
100
AcDbEntity
  8
0
100
AcDbVertex
100
AcDb2dVertex
 10
-10034.99078683868
 20
-5267.445712475357
 30
0.0
 42
-0.1142582045074363
  0
VERTEX
  5
4F5A
330
4F4D
100
AcDbEntity
  8
0
100
AcDbVertex
100
AcDb2dVertex
 10
-10020.62733806225
 20
-5262.307149760678
 30
0.0
 42
-0.2321895392944741
  0
VERTEX
  5
4F5B
330
4F4D
100
AcDbEntity
  8
0
100
AcDbVertex
100
AcDb2dVertex
 10
-10003.13733375297
 20
-5268.499103523835
 30
0.0
 42
0.2823827117993129
  0
VERTEX
  5
4F5C
330
4F4D
100
AcDbEntity
  8
0
100
AcDbVertex
100
AcDb2dVertex
 10
-9987.978638752103
 20
-5272.307149760678
 30
0.0
 42
0.1766976244461863
  0
VERTEX
  5
4F5D
330
4F4D
100
AcDbEntity
  8
0
100
AcDbVertex
100
AcDb2dVertex
 10
-9981.441036815255
 20
-5267.294815903653
 30
0.0
 42
-0.1773270153938223
  0
VERTEX
  5
4F5E
330
4F4D
100
AcDbEntity
  8
0
100
AcDbVertex
100
AcDb2dVertex
 10
-9974.919138859085
 20
-5262.307149760678
 30
0.0
 42
-0.2058351738198912
  0
VERTEX
  5
4F5F
330
4F4D
100
AcDbEntity
  8
0
100
AcDbVertex
100
AcDb2dVertex
 10
-9953.78994990841
 20
-5264.515242159973
 30
0.0
 42
0.1331294588025776
  0
VERTEX
  5
4F60
330
4F4D
100
AcDbEntity
  8
0
100
AcDbVertex
100
AcDb2dVertex
 10
-9922.6811897094
 20
-5272.307149760678
 30
0.0
 42
0.0832255166851424
  0
VERTEX
  5
4F61
330
4F4D
100
AcDbEntity
  8
0
100
AcDbVertex
100
AcDb2dVertex
 10
-9888.225993795762
 20
-5265.846839447116
 30
0.0
 42
-0.1097242647440611
  0
VERTEX
  5
4F62
330
4F4D
100
AcDbEntity
  8
0
100
AcDbVertex
100
AcDb2dVertex
 10
-9861.736856875324
 20
-5262.30714976068
 30
0.0
 42
-0.1094066769750613
  0
VERTEX
  5
4F63
330
4F4D
100
AcDbEntity
  8
0
100
AcDbVertex
100
AcDb2dVertex
 10
-9844.970172626348
 20
-5267.561369684641
 30
0.0
 42
0.0002339245184789
  0
VERTEX
  5
4F64
330
4F4D
100
AcDbEntity
  8
0
100
AcDbVertex
100
AcDb2dVertex
 10
-9844.940829477295
 20
-5267.578215613459
 30
0.0
 42
0.1635239807755977
  0
SEQEND
  5
4F65
330
4F4D
100
AcDbEntity
  8
0
  0
LINE
  5
5226
330
22
100
AcDbEntity
  8
0
100
AcDbLine
 10
-12292.65839500387
 20
-5322.307149760678
 30
0.0
 11
-12292.65839500387
 21
-5262.307149760678
 31
0.0
  0
LINE
  5
5232
330
22
100
AcDbEntity
  8
0
100
AcDbLine
 10
-10292.65839500387
 20
-5322.307149760678
 30
0.0
 11
-10292.65839500387
 21
-5262.307149760678
 31
0.0
  0
LINE
  5
52CE
330
22
100
AcDbEntity
  8
DIBU
100
AcDbLine
 10
-9486.314976
 20
-2874.495372
 30
0.0
 11
-13551.31506
 21
-2874.495372000001
 31
0.0
  0
LINE
  5
5330
330
22
100
AcDbEntity
  8
0
100
AcDbLine
 10
-12292.65839500387
 20
-5391.097315023948
 30
0.0
 11
-12292.65839500387
 21
-5680.761264710527
 31
0.0
  0
LINE
  5
5331
330
22
100
AcDbEntity
  8
0
100
AcDbLine
 10
-10292.65839500387
 20
-5391.097315023948
 30
0.0
 11
-10292.65839500387
 21
-5680.761264710527
 31
0.0
  0
LINE
  5
5332
330
22
100
AcDbEntity
  8
0
100
AcDbLine
 10
-12212.65839500387
 20
-5679.511264710527
 30
0.0
 11
-10372.65839500387
 21
-5679.511264710527
 31
0.0
  0
SOLID
  5
5333
330
22
100
AcDbEntity
  8
0
100
AcDbTrace
 10
-12212.65839500387
 20
-5666.177931377195
 30
0.0
 11
-12212.65839500387
 21
-5692.84459804386
 31
0.0
 12
-12292.65839500387
 22
-5679.511264710527
 32
0.0
 13
-12292.65839500387
 23
-5679.511264710527
 33
0.0
  0
SOLID
  5
5334
330
22
100
AcDbEntity
  8
0
100
AcDbTrace
 10
-10372.65839500387
 20
-5666.177931377195
 30
0.0
 11
-10372.65839500387
 21
-5692.84459804386
 31
0.0
 12
-10292.65839500387
 22
-5679.511264710527
 32
0.0
 13
-10292.65839500387
 23
-5679.511264710527
 33
0.0
  0
MTEXT
  5
5335
330
22
100
AcDbEntity
  8
0
100
AcDbMText
 10
-11300.24346115765
 20
-5585.788161378599
 30
0.0
 40
100.0
 41
0.0
 71
     5
 72
     1
  1
\A1;100
 73
     1
 44
1.0
  0
LINE
  5
5371
330
22
100
AcDbEntity
  8
0
100
AcDbLine
 10
-12807.87316858329
 20
-5273.105577759016
 30
0.0
 11
-12974.48203522595
 21
-5273.105577759015
 31
0.0
  0
LINE
  5
5372
330
22
100
AcDbEntity
  8
0
100
AcDbLine
 10
-12807.87316858329
 20
-5262.307149760679
 30
0.0
 11
-12974.48203522595
 21
-5262.307149760678
 31
0.0
  0
LINE
  5
5373
330
22
100
AcDbEntity
  8
0
100
AcDbLine
 10
-12973.23203522595
 20
-5353.105577759015
 30
0.0
 11
-12973.23203522595
 21
-5433.105577759016
 31
0.0
  0
LINE
  5
5374
330
22
100
AcDbEntity
  8
0
100
AcDbLine
 10
-12973.23203522595
 20
-5182.307149760678
 30
0.0
 11
-12973.23203522595
 21
-5102.307149760678
 31
0.0
  0
MTEXT
  5
5375
330
22
100
AcDbEntity
  8
0
100
AcDbMText
 10
-13085.57344041012
 20
-5267.706363759849
 30
0.0
 40
100.0
 41
0.0
 71
     5
 72
     1
  1
\A1;3
 11
0.0000000000000001
 21
1.0
 31
0.0
 73
     1
 44
1.0
  0
LINE
  5
5376
330
22
100
AcDbEntity
  8
0
100
AcDbLine
 10
-12973.23203522595
 20
-5273.105577759015
 30
0.0
 11
-12973.23203522595
 21
-5262.307149760678
 31
0.0
  0
SOLID
  5
5377
330
22
100
AcDbEntity
  8
0
100
AcDbTrace
 10
-12986.56536855929
 20
-5353.105577759015
 30
0.0
 11
-12959.89870189262
 21
-5353.105577759015
 31
0.0
 12
-12973.23203522595
 22
-5273.105577759015
 32
0.0
 13
-12973.23203522595
 23
-5273.105577759015
 33
0.0
  0
SOLID
  5
5378
330
22
100
AcDbEntity
  8
0
100
AcDbTrace
 10
-12986.56536855929
 20
-5182.307149760678
 30
0.0
 11
-12959.89870189262
 21
-5182.307149760678
 31
0.0
 12
-12973.23203522595
 22
-5262.307149760678
 32
0.0
 13
-12973.23203522595
 23
-5262.307149760678
 33
0.0
  0
ENDSEC
  0
SECTION
  2
OBJECTS
  0
DICTIONARY
  5
C
330
0
100
AcDbDictionary
281
     1
  3
ACAD_COLOR
350
1B
  3
ACAD_GROUP
350
D
  3
ACAD_LAYOUT
350
19
  3
ACAD_MATERIAL
350
1A
  3
ACAD_MLEADERSTYLE
350
5208
  3
ACAD_MLINESTYLE
350
16
  3
ACAD_PLOTSETTINGS
350
18
  3
ACAD_PLOTSTYLENAME
350
E
  3
ACAD_SCALELIST
350
51E6
  3
ACAD_TABLESTYLE
350
1C
  3
ACAD_VISUALSTYLE
350
51D5
  3
ACDB_RECOMPOSE_DATA
350
52C2
  3
AcDbVariableDictionary
350
4AF5
  0
DICTIONARY
  5
520E
330
10
100
AcDbDictionary
280
     1
281
     1
  3
ADSK_XREC_LAYER_RECONCILED
360
520F
  0
DICTIONARY
  5
5210
330
31
100
AcDbDictionary
280
     1
281
     1
  3
ADSK_XREC_LAYER_RECONCILED
360
5211
  0
DICTIONARY
  5
5212
330
32
100
AcDbDictionary
280
     1
281
     1
  3
ADSK_XREC_LAYER_RECONCILED
360
5213
  0
DICTIONARY
  5
5214
330
33
100
AcDbDictionary
280
     1
281
     1
  3
ADSK_XREC_LAYER_RECONCILED
360
5215
  0
DICTIONARY
  5
5216
330
34
100
AcDbDictionary
280
     1
281
     1
  3
ADSK_XREC_LAYER_RECONCILED
360
5217
  0
DICTIONARY
  5
512A
330
22
100
AcDbDictionary
280
     1
281
     1
  3
ACAD_SORTENTS
360
512B
  0
DICTIONARY
  5
1B
102
{ACAD_REACTORS
330
C
102
}
330
C
100
AcDbDictionary
281
     1
  0
DICTIONARY
  5
D
102
{ACAD_REACTORS
330
C
102
}
330
C
100
AcDbDictionary
281
     1
  0
DICTIONARY
  5
19
102
{ACAD_REACTORS
330
C
102
}
330
C
100
AcDbDictionary
281
     1
  3
Model
350
25
  3
Presentación1
350
21
  0
DICTIONARY
  5
1A
102
{ACAD_REACTORS
330
C
102
}
330
C
100
AcDbDictionary
281
     1
  3
ByBlock
350
51C5
  3
ByLayer
350
51BD
  3
Global
350
51CD
  0
DICTIONARY
  5
5208
102
{ACAD_REACTORS
330
C
102
}
330
C
100
AcDbDictionary
281
     1
  3
Standard
350
5209
  0
DICTIONARY
  5
16
102
{ACAD_REACTORS
330
C
102
}
330
C
100
AcDbDictionary
281
     1
  3
Standard
350
17
  0
DICTIONARY
  5
18
102
{ACAD_REACTORS
330
C
102
}
330
C
100
AcDbDictionary
281
     1
  0
ACDBDICTIONARYWDFLT
  5
E
102
{ACAD_REACTORS
330
C
102
}
330
C
100
AcDbDictionary
281
     1
  3
Normal
350
F
100
AcDbDictionaryWithDefault
340
F
  0
DICTIONARY
  5
51E6
102
{ACAD_REACTORS
330
C
102
}
330
C
100
AcDbDictionary
281
     1
  3
A0
350
51E7
  3
A1
350
51E8
  3
A2
350
51E9
  3
A3
350
51EA
  3
A4
350
51EB
  3
A5
350
51EC
  3
A6
350
51ED
  3
A7
350
51EE
  3
A8
350
51EF
  3
A9
350
51F0
  3
B0
350
51F1
  3
B1
350
51F2
  3
B2
350
51F3
  3
B3
350
51F4
  3
B4
350
51F5
  3
B5
350
51F6
  3
B6
350
51F7
  3
B7
350
51F8
  3
B8
350
51F9
  3
B9
350
51FA
  3
C0
350
51FB
  3
C1
350
51FC
  3
C2
350
51FD
  3
C3
350
51FE
  3
C4
350
51FF
  3
C5
350
5200
  3
C6
350
5201
  3
C7
350
5202
  3
C8
350
5203
  3
C9
350
5204
  3
D0
350
5205
  3
D1
350
5206
  3
D2
350
5207
  0
DICTIONARY
  5
1C
102
{ACAD_REACTORS
330
C
102
}
330
C
100
AcDbDictionary
281
     1
  3
Standard
350
1D
  0
DICTIONARY
  5
51D5
102
{ACAD_REACTORS
330
C
102
}
330
C
100
AcDbDictionary
281
     1
  3
2dWireframe
350
51DB
  3
3D Hidden
350
51DD
  3
3dWireframe
350
51DC
  3
Basic
350
51DA
  3
Brighten
350
51E1
  3
ColorChange
350
51E5
  3
Conceptual
350
51DE
  3
Dim
350
51E0
  3
Facepattern
350
51E4
  3
Flat
350
51D6
  3
FlatWithEdges
350
51D7
  3
Gouraud
350
51D8
  3
GouraudWithEdges
350
51D9
  3
Linepattern
350
51E3
  3
Realistic
350
51DF
  3
Thicken
350
51E2
  0
XRECORD
  5
52C2
102
{ACAD_REACTORS
330
C
102
}
330
C
100
AcDbXrecord
280
     1
 90
        1
330
1D
  0
DICTIONARY
  5
4AF5
102
{ACAD_REACTORS
330
C
102
}
330
C
100
AcDbDictionary
281
     1
  3
CANNOSCALE
350
5244
  3
CMLEADERSTYLE
350
5243
  3
CTABLESTYLE
350
4AF6
  3
DIMASSOC
350
5248
  3
HIDETEXT
350
5247
  3
INDEXCTL
350
5246
  3
LIGHTINGUNITS
350
52C4
  3
MSLTSCALE
350
52C3
  3
SORTENTS
350
5245
  0
XRECORD
  5
520F
102
{ACAD_REACTORS
330
520E
102
}
330
520E
100
AcDbXrecord
280
     1
290
     1
  0
XRECORD
  5
5211
102
{ACAD_REACTORS
330
5210
102
}
330
5210
100
AcDbXrecord
280
     1
290
     1
  0
XRECORD
  5
5213
102
{ACAD_REACTORS
330
5212
102
}
330
5212
100
AcDbXrecord
280
     1
290
     1
  0
XRECORD
  5
5215
102
{ACAD_REACTORS
330
5214
102
}
330
5214
100
AcDbXrecord
280
     1
290
     1
  0
XRECORD
  5
5217
102
{ACAD_REACTORS
330
5216
102
}
330
5216
100
AcDbXrecord
280
     1
290
     1
  0
SORTENTSTABLE
  5
512B
102
{ACAD_REACTORS
330
512A
102
}
330
512A
100
AcDbSortentsTable
330
22
331
5374
  5
5374
331
47E3
  5
47E4
331
4ECD
  5
4F34
331
47EC
  5
47ED
331
A39
  5
A39
331
1377
  5
1379
331
5375
  5
5375
331
25C2
  5
25C3
331
47E4
  5
47E5
331
47ED
  5
47EE
331
26DB
  5
26DC
331
1C15
  5
1D26
331
B4F
  5
B50
331
A3A
  5
A3C
331
5376
  5
5376
331
5232
  5
52CE
331
25C3
  5
25C5
331
47E5
  5
47E6
331
47EE
  5
47EF
331
26DC
  5
2F02
331
B50
  5
1376
331
55A
  5
55A
331
1379
  5
1C12
331
52CE
  5
A3A
331
4F4D
  5
4F66
331
5377
  5
5377
331
47FC
  5
47FD
331
40D8
  5
40D9
331
47E6
  5
47E7
331
4815
  5
4816
331
47EF
  5
47F0
331
25C8
  5
25C9
331
55B
  5
55B
331
A3C
  5
A3D
331
5378
  5
5378
331
47FD
  5
47FE
331
40D9
  5
40DB
331
25C5
  5
25C6
331
47E7
  5
47E8
331
4816
  5
4817
331
47F0
  5
47F1
331
41F2
  5
47E2
331
25C9
  5
26D9
331
A3D
  5
B4D
331
5330
  5
5330
331
4824
  5
4ECD
331
47FE
  5
47FF
331
25C6
  5
25C7
331
4817
  5
4819
331
3ADD
  5
3ADE
331
47F1
  5
47F2
331
3680
  5
3682
331
55D
  5
55D
331
5331
  5
5331
331
40DB
  5
40DC
331
47FF
  5
4800
331
25C7
  5
25C8
331
3ADE
  5
3AE0
331
47F2
  5
47F3
331
5332
  5
5332
331
40DC
  5
40DD
331
4800
  5
4801
331
4819
  5
481C
331
47F3
  5
47FC
331
1D26
  5
1D27
331
3682
  5
3ADD
331
5333
  5
5333
331
4F34
  5
4F4D
331
40DD
  5
40DE
331
367F
  5
3680
331
4801
  5
4802
331
3AE0
  5
40D8
331
2F02
  5
2F03
331
1D27
  5
1D2A
331
5334
  5
5334
331
40DE
  5
40DF
331
4802
  5
4803
331
2F03
  5
2F05
331
47E8
  5
47E9
331
5335
  5
5335
331
5371
  5
5371
331
40DF
  5
41EF
331
4803
  5
4804
331
481C
  5
481E
331
47E9
  5
47EA
331
A36
  5
A36
331
5372
  5
5372
331
5226
  5
5232
331
4804
  5
4815
331
2F05
  5
367F
331
2207
  5
25C2
331
47EA
  5
47EB
331
1D2A
  5
2207
331
1C12
  5
1C13
331
A37
  5
A37
331
5373
  5
5373
331
481E
  5
4824
331
47E2
  5
47E3
331
26D9
  5
26DB
331
47EB
  5
47EC
331
1C13
  5
1C15
331
B4D
  5
B4F
331
1376
  5
1377
  0
LAYOUT
  5
25
102
{ACAD_REACTORS
330
19
102
}
330
19
100
AcDbPlotSettings
  1

  2
HP DeskJet 1220C
  4

  6

 40
0.0
 41
0.0
 42
0.0
 43
0.0
 44
0.0
 45
0.0
 46
0.0
 47
0.0
 48
0.0
 49
0.0
140
0.0
141
0.0
142
1.0
143
1.0
 70
  1712
 72
     0
 73
     0
 74
     0
  7
emilio.ctb
 75
     0
147
1.0
 76
     0
 77
     2
 78
   300
148
0.0
149
0.0
100
AcDbLayout
  1
Model
 70
     1
 71
     0
 10
0.0
 20
0.0
 11
12.0
 21
9.0
 12
0.0
 22
0.0
 32
0.0
 14
0.0
 24
0.0
 34
0.0
 15
0.0
 25
0.0
 35
0.0
146
0.0
 13
0.0
 23
0.0
 33
0.0
 16
1.0
 26
0.0
 36
0.0
 17
0.0
 27
1.0
 37
0.0
 76
     0
330
22
331
51BB
  0
LAYOUT
  5
21
102
{ACAD_REACTORS
330
19
102
}
330
19
100
AcDbPlotSettings
  1

  2
HP DeskJet 1220C
  4

  6

 40
0.0
 41
0.0
 42
0.0
 43
0.0
 44
0.0
 45
0.0
 46
0.0
 47
0.0
 48
0.0
 49
0.0
140
0.0
141
0.0
142
1.0
143
1.0
 70
   688
 72
     0
 73
     0
 74
     5
  7
emilio.ctb
 75
    16
147
1.0
 76
     0
 77
     2
 78
   300
148
0.0
149
0.0
100
AcDbLayout
  1
Presentación1
 70
     1
 71
     1
 10
0.0
 20
0.0
 11
420.0
 21
297.0
 12
0.0
 22
0.0
 32
0.0
 14
1.000000000000000E+20
 24
1.000000000000000E+20
 34
1.000000000000000E+20
 15
-1.000000000000000E+20
 25
-1.000000000000000E+20
 35
-1.000000000000000E+20
146
0.0
 13
0.0
 23
0.0
 33
0.0
 16
1.0
 26
0.0
 36
0.0
 17
0.0
 27
1.0
 37
0.0
 76
     0
330
1E
  0
MATERIAL
  5
51C5
102
{ACAD_XDICTIONARY
360
51C6
102
}
102
{ACAD_REACTORS
330
1A
102
}
330
1A
100
AcDbMaterial
  1
ByBlock
 72
     0
 43
0.0208333333333333
 43
0.0
 43
0.0
 43
0.0
 43
0.0
 43
0.0208333333333333
 43
0.0
 43
0.0
 43
0.0
 43
0.0
 43
1.0
 43
0.0
 43
0.0
 43
0.0
 43
0.0
 43
1.0
 77
     0
 47
0.0208333333333333
 47
0.0
 47
0.0
 47
0.0
 47
0.0
 47
0.0208333333333333
 47
0.0
 47
0.0
 47
0.0
 47
0.0
 47
1.0
 47
0.0
 47
0.0
 47
0.0
 47
0.0
 47
1.0
171
     0
 49
0.0208333333333333
 49
0.0
 49
0.0
 49
0.0
 49
0.0
 49
0.0208333333333333
 49
0.0
 49
0.0
 49
0.0
 49
0.0
 49
1.0
 49
0.0
 49
0.0
 49
0.0
 49
0.0
 49
1.0
175
     0
142
0.0208333333333333
142
0.0
142
0.0
142
0.0
142
0.0
142
0.0208333333333333
142
0.0
142
0.0
142
0.0
142
0.0
142
1.0
142
0.0
142
0.0
142
0.0
142
0.0
142
1.0
179
     0
144
0.0208333333333333
144
0.0
144
0.0
144
0.0
144
0.0
144
0.0208333333333333
144
0.0
144
0.0
144
0.0
144
0.0
144
1.0
144
0.0
144
0.0
144
0.0
144
0.0
144
1.0
147
0.0208333333333333
147
0.0
147
0.0
147
0.0
147
0.0
147
0.0208333333333333
147
0.0
147
0.0
147
0.0
147
0.0
147
1.0
147
0.0
147
0.0
147
0.0
147
0.0
147
1.0
  0
MATERIAL
  5
51BD
102
{ACAD_XDICTIONARY
360
51BE
102
}
102
{ACAD_REACTORS
330
1A
102
}
330
1A
100
AcDbMaterial
  1
ByLayer
 72
     0
 43
0.0208333333333333
 43
0.0
 43
0.0
 43
0.0
 43
0.0
 43
0.0208333333333333
 43
0.0
 43
0.0
 43
0.0
 43
0.0
 43
1.0
 43
0.0
 43
0.0
 43
0.0
 43
0.0
 43
1.0
 77
     0
 47
0.0208333333333333
 47
0.0
 47
0.0
 47
0.0
 47
0.0
 47
0.0208333333333333
 47
0.0
 47
0.0
 47
0.0
 47
0.0
 47
1.0
 47
0.0
 47
0.0
 47
0.0
 47
0.0
 47
1.0
171
     0
 49
0.0208333333333333
 49
0.0
 49
0.0
 49
0.0
 49
0.0
 49
0.0208333333333333
 49
0.0
 49
0.0
 49
0.0
 49
0.0
 49
1.0
 49
0.0
 49
0.0
 49
0.0
 49
0.0
 49
1.0
175
     0
142
0.0208333333333333
142
0.0
142
0.0
142
0.0
142
0.0
142
0.0208333333333333
142
0.0
142
0.0
142
0.0
142
0.0
142
1.0
142
0.0
142
0.0
142
0.0
142
0.0
142
1.0
179
     0
144
0.0208333333333333
144
0.0
144
0.0
144
0.0
144
0.0
144
0.0208333333333333
144
0.0
144
0.0
144
0.0
144
0.0
144
1.0
144
0.0
144
0.0
144
0.0
144
0.0
144
1.0
147
0.0208333333333333
147
0.0
147
0.0
147
0.0
147
0.0
147
0.0208333333333333
147
0.0
147
0.0
147
0.0
147
0.0
147
1.0
147
0.0
147
0.0
147
0.0
147
0.0
147
1.0
  0
MATERIAL
  5
51CD
102
{ACAD_XDICTIONARY
360
51CE
102
}
102
{ACAD_REACTORS
330
1A
102
}
330
1A
100
AcDbMaterial
  1
Global
 72
     0
 43
0.0208333333333333
 43
0.0
 43
0.0
 43
0.0
 43
0.0
 43
0.0208333333333333
 43
0.0
 43
0.0
 43
0.0
 43
0.0
 43
1.0
 43
0.0
 43
0.0
 43
0.0
 43
0.0
 43
1.0
 77
     0
 47
0.0208333333333333
 47
0.0
 47
0.0
 47
0.0
 47
0.0
 47
0.0208333333333333
 47
0.0
 47
0.0
 47
0.0
 47
0.0
 47
1.0
 47
0.0
 47
0.0
 47
0.0
 47
0.0
 47
1.0
171
     0
 49
0.0208333333333333
 49
0.0
 49
0.0
 49
0.0
 49
0.0
 49
0.0208333333333333
 49
0.0
 49
0.0
 49
0.0
 49
0.0
 49
1.0
 49
0.0
 49
0.0
 49
0.0
 49
0.0
 49
1.0
175
     0
142
0.0208333333333333
142
0.0
142
0.0
142
0.0
142
0.0
142
0.0208333333333333
142
0.0
142
0.0
142
0.0
142
0.0
142
1.0
142
0.0
142
0.0
142
0.0
142
0.0
142
1.0
179
     0
144
0.0208333333333333
144
0.0
144
0.0
144
0.0
144
0.0
144
0.0208333333333333
144
0.0
144
0.0
144
0.0
144
0.0
144
1.0
144
0.0
144
0.0
144
0.0
144
0.0
144
1.0
147
0.0208333333333333
147
0.0
147
0.0
147
0.0
147
0.0
147
0.0208333333333333
147
0.0
147
0.0
147
0.0
147
0.0
147
1.0
147
0.0
147
0.0
147
0.0
147
0.0
147
1.0
  0
MLEADERSTYLE
  5
5209
102
{ACAD_REACTORS
330
5208
102
}
330
5208
100
AcDbMLeaderStyle
170
     2
171
     1
172
     0
 90
        2
 40
0.0
 41
0.0
173
     1
 91
-1056964608
340
13
 92
       -2
290
     1
 42
0.09
291
     1
 43
0.36
  3
Standard
 44
0.18
300

342
11
174
     1
178
     6
175
     1
176
     0
 93
-1056964608
 45
0.18
292
     0
297
     0
 46
0.18
 94
-1056964608
 47
1.0
 49
1.0
140
1.0
293
     1
141
0.0
294
     1
177
     0
142
1.0
295
     0
296
     0
143
0.125
1001
ACAD_MLEADERVER
1070
     2
  0
MLINESTYLE
  5
17
102
{ACAD_REACTORS
330
16
102
}
330
16
100
AcDbMlineStyle
  2
STANDARD
 70
     0
  3

 62
   256
 51
90.0
 52
90.0
 71
     2
 49
0.5
 62
   256
  6
BYLAYER
 49
-0.5
 62
   256
  6
BYLAYER
  0
ACDBPLACEHOLDER
  5
F
102
{ACAD_REACTORS
330
E
102
}
330
E
  0
SCALE
  5
51E7
102
{ACAD_REACTORS
330
51E6
102
}
330
51E6
100
AcDbScale
 70
     0
300
1:1
140
1.0
141
1.0
290
     1
  0
SCALE
  5
51E8
102
{ACAD_REACTORS
330
51E6
102
}
330
51E6
100
AcDbScale
 70
     0
300
1:2
140
1.0
141
2.0
290
     0
  0
SCALE
  5
51E9
102
{ACAD_REACTORS
330
51E6
102
}
330
51E6
100
AcDbScale
 70
     0
300
1:4
140
1.0
141
4.0
290
     0
  0
SCALE
  5
51EA
102
{ACAD_REACTORS
330
51E6
102
}
330
51E6
100
AcDbScale
 70
     0
300
1:5
140
1.0
141
5.0
290
     0
  0
SCALE
  5
51EB
102
{ACAD_REACTORS
330
51E6
102
}
330
51E6
100
AcDbScale
 70
     0
300
1:8
140
1.0
141
8.0
290
     0
  0
SCALE
  5
51EC
102
{ACAD_REACTORS
330
51E6
102
}
330
51E6
100
AcDbScale
 70
     0
300
1:10
140
1.0
141
10.0
290
     0
  0
SCALE
  5
51ED
102
{ACAD_REACTORS
330
51E6
102
}
330
51E6
100
AcDbScale
 70
     0
300
1:16
140
1.0
141
16.0
290
     0
  0
SCALE
  5
51EE
102
{ACAD_REACTORS
330
51E6
102
}
330
51E6
100
AcDbScale
 70
     0
300
1:20
140
1.0
141
20.0
290
     0
  0
SCALE
  5
51EF
102
{ACAD_REACTORS
330
51E6
102
}
330
51E6
100
AcDbScale
 70
     0
300
1:30
140
1.0
141
30.0
290
     0
  0
SCALE
  5
51F0
102
{ACAD_REACTORS
330
51E6
102
}
330
51E6
100
AcDbScale
 70
     0
300
1:40
140
1.0
141
40.0
290
     0
  0
SCALE
  5
51F1
102
{ACAD_REACTORS
330
51E6
102
}
330
51E6
100
AcDbScale
 70
     0
300
1:50
140
1.0
141
50.0
290
     0
  0
SCALE
  5
51F2
102
{ACAD_REACTORS
330
51E6
102
}
330
51E6
100
AcDbScale
 70
     0
300
1:100
140
1.0
141
100.0
290
     0
  0
SCALE
  5
51F3
102
{ACAD_REACTORS
330
51E6
102
}
330
51E6
100
AcDbScale
 70
     0
300
2:1
140
2.0
141
1.0
290
     0
  0
SCALE
  5
51F4
102
{ACAD_REACTORS
330
51E6
102
}
330
51E6
100
AcDbScale
 70
     0
300
4:1
140
4.0
141
1.0
290
     0
  0
SCALE
  5
51F5
102
{ACAD_REACTORS
330
51E6
102
}
330
51E6
100
AcDbScale
 70
     0
300
8:1
140
8.0
141
1.0
290
     0
  0
SCALE
  5
51F6
102
{ACAD_REACTORS
330
51E6
102
}
330
51E6
100
AcDbScale
 70
     0
300
10:1
140
10.0
141
1.0
290
     0
  0
SCALE
  5
51F7
102
{ACAD_REACTORS
330
51E6
102
}
330
51E6
100
AcDbScale
 70
     0
300
100:1
140
100.0
141
1.0
290
     0
  0
SCALE
  5
51F8
102
{ACAD_REACTORS
330
51E6
102
}
330
51E6
100
AcDbScale
 70
     0
300
1/128" = 1'-0"
140
0.0078125
141
12.0
290
     0
  0
SCALE
  5
51F9
102
{ACAD_REACTORS
330
51E6
102
}
330
51E6
100
AcDbScale
 70
     0
300
1/64" = 1'-0"
140
0.015625
141
12.0
290
     0
  0
SCALE
  5
51FA
102
{ACAD_REACTORS
330
51E6
102
}
330
51E6
100
AcDbScale
 70
     0
300
1/32" = 1'-0"
140
0.03125
141
12.0
290
     0
  0
SCALE
  5
51FB
102
{ACAD_REACTORS
330
51E6
102
}
330
51E6
100
AcDbScale
 70
     0
300
1/16" = 1'-0"
140
0.0625
141
12.0
290
     0
  0
SCALE
  5
51FC
102
{ACAD_REACTORS
330
51E6
102
}
330
51E6
100
AcDbScale
 70
     0
300
3/32" = 1'-0"
140
0.09375
141
12.0
290
     0
  0
SCALE
  5
51FD
102
{ACAD_REACTORS
330
51E6
102
}
330
51E6
100
AcDbScale
 70
     0
300
1/8" = 1'-0"
140
0.125
141
12.0
290
     0
  0
SCALE
  5
51FE
102
{ACAD_REACTORS
330
51E6
102
}
330
51E6
100
AcDbScale
 70
     0
300
3/16" = 1'-0"
140
0.1875
141
12.0
290
     0
  0
SCALE
  5
51FF
102
{ACAD_REACTORS
330
51E6
102
}
330
51E6
100
AcDbScale
 70
     0
300
1/4" = 1'-0"
140
0.25
141
12.0
290
     0
  0
SCALE
  5
5200
102
{ACAD_REACTORS
330
51E6
102
}
330
51E6
100
AcDbScale
 70
     0
300
3/8" = 1'-0"
140
0.375
141
12.0
290
     0
  0
SCALE
  5
5201
102
{ACAD_REACTORS
330
51E6
102
}
330
51E6
100
AcDbScale
 70
     0
300
1/2" = 1'-0"
140
0.5
141
12.0
290
     0
  0
SCALE
  5
5202
102
{ACAD_REACTORS
330
51E6
102
}
330
51E6
100
AcDbScale
 70
     0
300
3/4" = 1'-0"
140
0.75
141
12.0
290
     0
  0
SCALE
  5
5203
102
{ACAD_REACTORS
330
51E6
102
}
330
51E6
100
AcDbScale
 70
     0
300
1" = 1'-0"
140
1.0
141
12.0
290
     0
  0
SCALE
  5
5204
102
{ACAD_REACTORS
330
51E6
102
}
330
51E6
100
AcDbScale
 70
     0
300
1-1/2" = 1'-0"
140
1.5
141
12.0
290
     0
  0
SCALE
  5
5205
102
{ACAD_REACTORS
330
51E6
102
}
330
51E6
100
AcDbScale
 70
     0
300
3" = 1'-0"
140
3.0
141
12.0
290
     0
  0
SCALE
  5
5206
102
{ACAD_REACTORS
330
51E6
102
}
330
51E6
100
AcDbScale
 70
     0
300
6" = 1'-0"
140
6.0
141
12.0
290
     0
  0
SCALE
  5
5207
102
{ACAD_REACTORS
330
51E6
102
}
330
51E6
100
AcDbScale
 70
     0
300
1'-0" = 1'-0"
140
12.0
141
12.0
290
     0
  0
TABLESTYLE
  5
1D
102
{ACAD_XDICTIONARY
360
52C0
102
}
102
{ACAD_REACTORS
330
1C
102
}
330
1C
100
AcDbTableStyle
  3
Standard
 70
     0
 71
     0
 40
0.06
 41
0.06
280
     0
281
     0
  7
STANDARD
140
0.18
170
     2
 62
     0
 63
     7
283
     0
274
    -2
284
     1
 64
     0
275
    -2
285
     1
 65
     0
276
    -2
286
     1
 66
     0
277
    -2
287
     1
 67
     0
278
    -2
288
     1
 68
     0
279
    -2
289
     1
 69
     0
  7
STANDARD
140
0.25
170
     5
 62
     0
 63
     7
283
     0
274
    -2
284
     1
 64
     0
275
    -2
285
     1
 65
     0
276
    -2
286
     1
 66
     0
277
    -2
287
     1
 67
     0
278
    -2
288
     1
 68
     0
279
    -2
289
     1
 69
     0
  7
STANDARD
140
0.18
170
     5
 62
     0
 63
     7
283
     0
274
    -2
284
     1
 64
     0
275
    -2
285
     1
 65
     0
276
    -2
286
     1
 66
     0
277
    -2
287
     1
 67
     0
278
    -2
288
     1
 68
     0
279
    -2
289
     1
 69
     0
  0
VISUALSTYLE
  5
51DB
102
{ACAD_REACTORS
330
51D5
102
}
330
51D5
100
AcDbVisualStyle
  2
2dWireframe
 70
     4
 71
     0
 72
     2
 73
     0
 90
        0
 40
-0.6
 41
-30.0
 62
     5
 63
     7
421
 16777215
 74
     1
 91
        4
 64
     7
 65
   257
 75
     1
175
     1
 42
1.0
 92
        0
 66
   257
 43
1.0
 76
     1
 77
     6
 78
     2
 67
     7
 79
     5
170
     0
171
     0
290
     0
174
     0
 93
        1
 44
0.0
173
     0
291
     0
 45
0.0
1001
ACAD
1000
AcDbSavedByObjectVersion
1070
     0
  0
VISUALSTYLE
  5
51DD
102
{ACAD_REACTORS
330
51D5
102
}
330
51D5
100
AcDbVisualStyle
  2
3D Hidden
 70
     6
 71
     1
 72
     2
 73
     2
 90
        0
 40
-0.6
 41
-30.0
 62
     5
 63
     7
421
 16777215
 74
     2
 91
        2
 64
     7
 65
   257
 75
     2
175
     1
 42
40.0
 92
        0
 66
   257
 43
1.0
 76
     1
 77
     6
 78
     2
 67
     7
 79
     3
170
     0
171
     0
290
     0
174
     0
 93
        1
 44
0.0
173
     0
291
     0
 45
0.0
1001
ACAD
1000
AcDbSavedByObjectVersion
1070
     0
  0
VISUALSTYLE
  5
51DC
102
{ACAD_REACTORS
330
51D5
102
}
330
51D5
100
AcDbVisualStyle
  2
3dWireframe
 70
     5
 71
     0
 72
     2
 73
     0
 90
        0
 40
-0.6
 41
-30.0
 62
     5
 63
     7
421
 16777215
 74
     1
 91
        4
 64
     7
 65
   257
 75
     1
175
     1
 42
1.0
 92
        0
 66
   257
 43
1.0
 76
     1
 77
     6
 78
     2
 67
     7
 79
     5
170
     0
171
     0
290
     0
174
     0
 93
        1
 44
0.0
173
     0
291
     0
 45
0.0
1001
ACAD
1000
AcDbSavedByObjectVersion
1070
     0
  0
VISUALSTYLE
  5
51DA
102
{ACAD_REACTORS
330
51D5
102
}
330
51D5
100
AcDbVisualStyle
  2
Basic
 70
     7
 71
     1
 72
     0
 73
     1
 90
        0
 40
-0.6
 41
-30.0
 62
     5
 63
     7
421
 16777215
 74
     0
 91
        4
 64
     7
 65
   257
 75
     1
175
     1
 42
1.0
 92
        8
 66
     7
 43
1.0
 76
     1
 77
     6
 78
     2
 67
     7
 79
     5
170
     0
171
     0
290
     0
174
     0
 93
        1
 44
0.0
173
     0
291
     1
 45
0.0
1001
ACAD
1000
AcDbSavedByObjectVersion
1070
     0
  0
VISUALSTYLE
  5
51E1
102
{ACAD_REACTORS
330
51D5
102
}
330
51D5
100
AcDbVisualStyle
  2
Brighten
 70
    12
 71
     2
 72
     2
 73
     0
 90
        0
 40
-0.6
 41
-30.0
 62
     5
 63
     7
421
 16777215
 74
     1
 91
        4
 64
     7
 65
   257
 75
     1
175
     1
 42
1.0
 92
        8
 66
     7
 43
1.0
 76
     1
 77
     6
 78
     2
 67
     7
 79
     5
170
     0
171
     0
290
     0
174
     0
 93
        1
 44
50.0
173
     0
291
     1
 45
0.0
1001
ACAD
1000
AcDbSavedByObjectVersion
1070
     0
  0
VISUALSTYLE
  5
51E5
102
{ACAD_REACTORS
330
51D5
102
}
330
51D5
100
AcDbVisualStyle
  2
ColorChange
 70
    16
 71
     2
 72
     2
 73
     3
 90
        0
 40
-0.6
 41
-30.0
 62
     5
 63
     8
421
  8421504
 74
     1
 91
        4
 64
     7
 65
   257
 75
     1
175
     1
 42
1.0
 92
        8
 66
     8
424
  8421504
 43
1.0
 76
     1
 77
     6
 78
     2
 67
     7
 79
     5
170
     0
171
     0
290
     0
174
     0
 93
        1
 44
0.0
173
     0
291
     1
 45
0.0
1001
ACAD
1000
AcDbSavedByObjectVersion
1070
     0
  0
VISUALSTYLE
  5
51DE
102
{ACAD_REACTORS
330
51D5
102
}
330
51D5
100
AcDbVisualStyle
  2
Conceptual
 70
     9
 71
     3
 72
     2
 73
     0
 90
        0
 40
-0.6
 41
-30.0
 62
     5
 63
     7
421
 16777215
 74
     2
 91
        2
 64
     7
 65
   257
 75
     1
175
     1
 42
40.0
 92
        8
 66
     7
 43
1.0
 76
     1
 77
     6
 78
     2
 67
     7
 79
     3
170
     0
171
     0
290
     0
174
     0
 93
        1
 44
0.0
173
     0
291
     0
 45
0.0
1001
ACAD
1000
AcDbSavedByObjectVersion
1070
     0
  0
VISUALSTYLE
  5
51E0
102
{ACAD_REACTORS
330
51D5
102
}
330
51D5
100
AcDbVisualStyle
  2
Dim
 70
    11
 71
     2
 72
     2
 73
     0
 90
        0
 40
-0.6
 41
-30.0
 62
     5
 63
     7
421
 16777215
 74
     1
 91
        4
 64
     7
 65
   257
 75
     1
175
     1
 42
1.0
 92
        8
 66
     7
 43
1.0
 76
     1
 77
     6
 78
     2
 67
     7
 79
     5
170
     0
171
     0
290
     0
174
     0
 93
        1
 44
-50.0
173
     0
291
     1
 45
0.0
1001
ACAD
1000
AcDbSavedByObjectVersion
1070
     0
  0
VISUALSTYLE
  5
51E4
102
{ACAD_REACTORS
330
51D5
102
}
330
51D5
100
AcDbVisualStyle
  2
Facepattern
 70
    15
 71
     2
 72
     2
 73
     0
 90
        0
 40
-0.6
 41
-30.0
 62
     5
 63
     7
421
 16777215
 74
     1
 91
        4
 64
     7
 65
   257
 75
     1
175
     1
 42
1.0
 92
        8
 66
     7
 43
1.0
 76
     1
 77
     6
 78
     2
 67
     7
 79
     5
170
     0
171
     0
290
     0
174
     0
 93
        1
 44
0.0
173
     0
291
     1
 45
0.0
1001
ACAD
1000
AcDbSavedByObjectVersion
1070
     0
  0
VISUALSTYLE
  5
51D6
102
{ACAD_REACTORS
330
51D5
102
}
330
51D5
100
AcDbVisualStyle
  2
Flat
 70
     0
 71
     2
 72
     1
 73
     1
 90
        2
 40
-0.6
 41
30.0
 62
     5
 63
     7
421
 16777215
 74
     0
 91
        4
 64
     7
 65
   257
 75
     1
175
     1
 42
1.0
 92
        8
 66
     7
 43
1.0
 76
     1
 77
     6
 78
     2
 67
     7
 79
     5
170
     0
171
     0
290
     0
174
     0
 93
       13
 44
0.0
173
     0
291
     1
 45
0.0
1001
ACAD
1000
AcDbSavedByObjectVersion
1070
     0
  0
VISUALSTYLE
  5
51D7
102
{ACAD_REACTORS
330
51D5
102
}
330
51D5
100
AcDbVisualStyle
  2
FlatWithEdges
 70
     1
 71
     2
 72
     1
 73
     1
 90
        2
 40
-0.6
 41
30.0
 62
     5
 63
     7
421
 16777215
 74
     1
 91
        4
 64
     7
 65
   257
 75
     1
175
     1
 42
1.0
 92
        0
 66
   257
 43
1.0
 76
     1
 77
     6
 78
     2
 67
     7
 79
     5
170
     0
171
     0
290
     0
174
     0
 93
       13
 44
0.0
173
     0
291
     1
 45
0.0
1001
ACAD
1000
AcDbSavedByObjectVersion
1070
     0
  0
VISUALSTYLE
  5
51D8
102
{ACAD_REACTORS
330
51D5
102
}
330
51D5
100
AcDbVisualStyle
  2
Gouraud
 70
     2
 71
     2
 72
     2
 73
     1
 90
        2
 40
-0.6
 41
30.0
 62
     5
 63
     7
421
 16777215
 74
     0
 91
        4
 64
     7
 65
   257
 75
     1
175
     1
 42
1.0
 92
        0
 66
     7
 43
1.0
 76
     1
 77
     6
 78
     2
 67
     7
 79
     5
170
     0
171
     0
290
     0
174
     0
 93
       13
 44
0.0
173
     0
291
     1
 45
0.0
1001
ACAD
1000
AcDbSavedByObjectVersion
1070
     0
  0
VISUALSTYLE
  5
51D9
102
{ACAD_REACTORS
330
51D5
102
}
330
51D5
100
AcDbVisualStyle
  2
GouraudWithEdges
 70
     3
 71
     2
 72
     2
 73
     1
 90
        2
 40
-0.6
 41
30.0
 62
     5
 63
     7
421
 16777215
 74
     1
 91
        4
 64
     7
 65
   257
 75
     1
175
     1
 42
1.0
 92
        0
 66
   257
 43
1.0
 76
     1
 77
     6
 78
     2
 67
     7
 79
     5
170
     0
171
     0
290
     0
174
     0
 93
       13
 44
0.0
173
     0
291
     1
 45
0.0
1001
ACAD
1000
AcDbSavedByObjectVersion
1070
     0
  0
VISUALSTYLE
  5
51E3
102
{ACAD_REACTORS
330
51D5
102
}
330
51D5
100
AcDbVisualStyle
  2
Linepattern
 70
    14
 71
     2
 72
     2
 73
     0
 90
        0
 40
-0.6
 41
-30.0
 62
     5
 63
     7
421
 16777215
 74
     1
 91
        4
 64
     7
 65
   257
 75
     7
175
     7
 42
1.0
 92
        8
 66
     7
 43
1.0
 76
     1
 77
     6
 78
     2
 67
     7
 79
     5
170
     0
171
     0
290
     0
174
     0
 93
        1
 44
0.0
173
     0
291
     1
 45
0.0
1001
ACAD
1000
AcDbSavedByObjectVersion
1070
     0
  0
VISUALSTYLE
  5
51DF
102
{ACAD_REACTORS
330
51D5
102
}
330
51D5
100
AcDbVisualStyle
  2
Realistic
 70
     8
 71
     2
 72
     2
 73
     0
 90
        0
 40
-0.6
 41
-30.0
 62
     5
 63
     7
421
 16777215
 74
     1
 91
        0
 64
     7
 65
   257
 75
     1
175
     1
 42
1.0
 92
        8
 66
     8
424
  7895160
 43
1.0
 76
     1
 77
     6
 78
     2
 67
     7
 79
     5
170
     0
171
     0
290
     0
174
     0
 93
       13
 44
0.0
173
     0
291
     0
 45
0.0
1001
ACAD
1000
AcDbSavedByObjectVersion
1070
     0
  0
VISUALSTYLE
  5
51E2
102
{ACAD_REACTORS
330
51D5
102
}
330
51D5
100
AcDbVisualStyle
  2
Thicken
 70
    13
 71
     2
 72
     2
 73
     0
 90
        0
 40
-0.6
 41
-30.0
 62
     5
 63
     7
421
 16777215
 74
     1
 91
        4
 64
     7
 65
   257
 75
     1
175
     1
 42
1.0
 92
       12
 66
     7
 43
1.0
 76
     1
 77
     6
 78
     2
 67
     7
 79
     5
170
     0
171
     0
290
     0
174
     0
 93
        1
 44
0.0
173
     0
291
     1
 45
0.0
1001
ACAD
1000
AcDbSavedByObjectVersion
1070
     0
  0
DICTIONARYVAR
  5
5244
102
{ACAD_REACTORS
330
4AF5
102
}
330
4AF5
100
DictionaryVariables
280
     0
  1
1:1
  0
DICTIONARYVAR
  5
5243
102
{ACAD_REACTORS
330
4AF5
102
}
330
4AF5
100
DictionaryVariables
280
     0
  1
STANDARD
  0
DICTIONARYVAR
  5
4AF6
102
{ACAD_REACTORS
330
4AF5
102
}
330
4AF5
100
DictionaryVariables
280
     0
  1
STANDARD
  0
DICTIONARYVAR
  5
5248
102
{ACAD_REACTORS
330
4AF5
102
}
330
4AF5
100
DictionaryVariables
280
     0
  1
2
  0
DICTIONARYVAR
  5
5247
102
{ACAD_REACTORS
330
4AF5
102
}
330
4AF5
100
DictionaryVariables
280
     0
  1
1
  0
DICTIONARYVAR
  5
5246
102
{ACAD_REACTORS
330
4AF5
102
}
330
4AF5
100
DictionaryVariables
280
     0
  1
0
  0
DICTIONARYVAR
  5
52C4
102
{ACAD_REACTORS
330
4AF5
102
}
330
4AF5
100
DictionaryVariables
280
     0
  1
0
  0
DICTIONARYVAR
  5
52C3
102
{ACAD_REACTORS
330
4AF5
102
}
330
4AF5
100
DictionaryVariables
280
     0
  1
0
  0
DICTIONARYVAR
  5
5245
102
{ACAD_REACTORS
330
4AF5
102
}
330
4AF5
100
DictionaryVariables
280
     0
  1
127
  0
DICTIONARY
  5
51C6
330
51C5
100
AcDbDictionary
280
     1
281
     1
  3
ACAD_XREC_ROUNDTRIP
360
5391
  3
BUMPTILE
360
51C8
  3
DIFFUSETILE
360
51C7
  3
OPACITYTILE
360
51CB
  3
REFLECTIONTILE
360
51CA
  3
REFRACTIONTILE
360
51CC
  3
SPECULARTILE
360
51C9
  0
DICTIONARY
  5
51BE
330
51BD
100
AcDbDictionary
280
     1
281
     1
  3
ACAD_XREC_ROUNDTRIP
360
5390
  3
BUMPTILE
360
51C0
  3
DIFFUSETILE
360
51BF
  3
OPACITYTILE
360
51C3
  3
REFLECTIONTILE
360
51C2
  3
REFRACTIONTILE
360
51C4
  3
SPECULARTILE
360
51C1
  0
DICTIONARY
  5
51CE
330
51CD
100
AcDbDictionary
280
     1
281
     1
  3
ACAD_XREC_ROUNDTRIP
360
5392
  3
BUMPTILE
360
51D0
  3
DIFFUSETILE
360
51CF
  3
OPACITYTILE
360
51D3
  3
REFLECTIONTILE
360
51D2
  3
REFRACTIONTILE
360
51D4
  3
SPECULARTILE
360
51D1
  0
DICTIONARY
  5
52C0
330
1D
100
AcDbDictionary
280
     1
281
     1
  3
ACAD_ROUNDTRIP_2008_TABLESTYLE_CELLSTYLEMAP
360
538E
  3
ACAD_XREC_ROUNDTRIP
360
538F
  0
XRECORD
  5
5391
102
{ACAD_REACTORS
330
51C6
102
}
330
51C6
100
AcDbXrecord
280
     1
102
MATERIAL
148
0.0
149
0.0
149
0.0
 93
        0
 94
      127
282
     0
 72
     0
 77
     0
171
     0
175
     0
179
     0
273
     0
  0
XRECORD
  5
51C8
102
{ACAD_REACTORS
330
51C6
102
}
330
51C6
100
AcDbXrecord
280
     1
270
     1
271
     1
  0
XRECORD
  5
51C7
102
{ACAD_REACTORS
330
51C6
102
}
330
51C6
100
AcDbXrecord
280
     1
270
     1
271
     1
  0
XRECORD
  5
51CB
102
{ACAD_REACTORS
330
51C6
102
}
330
51C6
100
AcDbXrecord
280
     1
270
     1
271
     1
  0
XRECORD
  5
51CA
102
{ACAD_REACTORS
330
51C6
102
}
330
51C6
100
AcDbXrecord
280
     1
270
     1
271
     1
  0
XRECORD
  5
51CC
102
{ACAD_REACTORS
330
51C6
102
}
330
51C6
100
AcDbXrecord
280
     1
270
     1
271
     1
  0
XRECORD
  5
51C9
102
{ACAD_REACTORS
330
51C6
102
}
330
51C6
100
AcDbXrecord
280
     1
270
     1
271
     1
  0
XRECORD
  5
5390
102
{ACAD_REACTORS
330
51BE
102
}
330
51BE
100
AcDbXrecord
280
     1
102
MATERIAL
148
0.0
149
0.0
149
0.0
 93
        0
 94
      127
282
     0
 72
     0
 77
     0
171
     0
175
     0
179
     0
273
     0
  0
XRECORD
  5
51C0
102
{ACAD_REACTORS
330
51BE
102
}
330
51BE
100
AcDbXrecord
280
     1
270
     1
271
     1
  0
XRECORD
  5
51BF
102
{ACAD_REACTORS
330
51BE
102
}
330
51BE
100
AcDbXrecord
280
     1
270
     1
271
     1
  0
XRECORD
  5
51C3
102
{ACAD_REACTORS
330
51BE
102
}
330
51BE
100
AcDbXrecord
280
     1
270
     1
271
     1
  0
XRECORD
  5
51C2
102
{ACAD_REACTORS
330
51BE
102
}
330
51BE
100
AcDbXrecord
280
     1
270
     1
271
     1
  0
XRECORD
  5
51C4
102
{ACAD_REACTORS
330
51BE
102
}
330
51BE
100
AcDbXrecord
280
     1
270
     1
271
     1
  0
XRECORD
  5
51C1
102
{ACAD_REACTORS
330
51BE
102
}
330
51BE
100
AcDbXrecord
280
     1
270
     1
271
     1
  0
XRECORD
  5
5392
102
{ACAD_REACTORS
330
51CE
102
}
330
51CE
100
AcDbXrecord
280
     1
102
MATERIAL
148
0.0
149
0.0
149
0.0
 93
        0
 94
      127
282
     0
 72
     0
 77
     0
171
     0
175
     0
179
     0
273
     0
  0
XRECORD
  5
51D0
102
{ACAD_REACTORS
330
51CE
102
}
330
51CE
100
AcDbXrecord
280
     1
270
     1
271
     1
  0
XRECORD
  5
51CF
102
{ACAD_REACTORS
330
51CE
102
}
330
51CE
100
AcDbXrecord
280
     1
270
     1
271
     1
  0
XRECORD
  5
51D3
102
{ACAD_REACTORS
330
51CE
102
}
330
51CE
100
AcDbXrecord
280
     1
270
     1
271
     1
  0
XRECORD
  5
51D2
102
{ACAD_REACTORS
330
51CE
102
}
330
51CE
100
AcDbXrecord
280
     1
270
     1
271
     1
  0
XRECORD
  5
51D4
102
{ACAD_REACTORS
330
51CE
102
}
330
51CE
100
AcDbXrecord
280
     1
270
     1
271
     1
  0
XRECORD
  5
51D1
102
{ACAD_REACTORS
330
51CE
102
}
330
51CE
100
AcDbXrecord
280
     1
270
     1
271
     1
  0
CELLSTYLEMAP
  5
538E
102
{ACAD_REACTORS
330
52C0
102
}
330
52C0
100
AcDbCellStyleMap
 90
        3
300
CELLSTYLE
  1
TABLEFORMAT_BEGIN
 90
        5
170
     1
 91
        0
 92
    32768
 62
   257
 93
        1
300
CONTENTFORMAT
  1
CONTENTFORMAT_BEGIN
 90
        0
 91
        0
 92
        4
 93
        0
300

 40
0.0
140
1.0
 94
        5
 62
     0
340
11
144
0.25
309
CONTENTFORMAT_END
171
     0
 94
        6
 95
        1
302
GRIDFORMAT
  1
GRIDFORMAT_BEGIN
 90
        0
 91
        1
 62
     0
 92
       -2
340
0
 93
        0
 40
0.045
309
GRIDFORMAT_END
 95
        2
302
GRIDFORMAT
  1
GRIDFORMAT_BEGIN
 90
        0
 91
        1
 62
     0
 92
       -2
340
0
 93
        0
 40
0.045
309
GRIDFORMAT_END
 95
        4
302
GRIDFORMAT
  1
GRIDFORMAT_BEGIN
 90
        0
 91
        1
 62
     0
 92
       -2
340
0
 93
        0
 40
0.045
309
GRIDFORMAT_END
 95
        8
302
GRIDFORMAT
  1
GRIDFORMAT_BEGIN
 90
        0
 91
        1
 62
     0
 92
       -2
340
0
 93
        0
 40
0.045
309
GRIDFORMAT_END
 95
       16
302
GRIDFORMAT
  1
GRIDFORMAT_BEGIN
 90
        0
 91
        1
 62
     0
 92
       -2
340
0
 93
        0
 40
0.045
309
GRIDFORMAT_END
 95
       32
302
GRIDFORMAT
  1
GRIDFORMAT_BEGIN
 90
        0
 91
        1
 62
     0
 92
       -2
340
0
 93
        0
 40
0.045
309
GRIDFORMAT_END
309
TABLEFORMAT_END
  1
CELLSTYLE_BEGIN
 90
        1
 91
        1
300
_TITLE
309
CELLSTYLE_END
300
CELLSTYLE
  1
TABLEFORMAT_BEGIN
 90
        5
170
     1
 91
        0
 92
        0
 62
   257
 93
        1
300
CONTENTFORMAT
  1
CONTENTFORMAT_BEGIN
 90
        0
 91
        0
 92
        4
 93
        0
300

 40
0.0
140
1.0
 94
        5
 62
     0
340
11
144
0.18
309
CONTENTFORMAT_END
171
     0
 94
        6
 95
        1
302
GRIDFORMAT
  1
GRIDFORMAT_BEGIN
 90
        0
 91
        1
 62
     0
 92
       -2
340
0
 93
        0
 40
0.045
309
GRIDFORMAT_END
 95
        2
302
GRIDFORMAT
  1
GRIDFORMAT_BEGIN
 90
        0
 91
        1
 62
     0
 92
       -2
340
0
 93
        0
 40
0.045
309
GRIDFORMAT_END
 95
        4
302
GRIDFORMAT
  1
GRIDFORMAT_BEGIN
 90
        0
 91
        1
 62
     0
 92
       -2
340
0
 93
        0
 40
0.045
309
GRIDFORMAT_END
 95
        8
302
GRIDFORMAT
  1
GRIDFORMAT_BEGIN
 90
        0
 91
        1
 62
     0
 92
       -2
340
0
 93
        0
 40
0.045
309
GRIDFORMAT_END
 95
       16
302
GRIDFORMAT
  1
GRIDFORMAT_BEGIN
 90
        0
 91
        1
 62
     0
 92
       -2
340
0
 93
        0
 40
0.045
309
GRIDFORMAT_END
 95
       32
302
GRIDFORMAT
  1
GRIDFORMAT_BEGIN
 90
        0
 91
        1
 62
     0
 92
       -2
340
0
 93
        0
 40
0.045
309
GRIDFORMAT_END
309
TABLEFORMAT_END
  1
CELLSTYLE_BEGIN
 90
        2
 91
        1
300
_HEADER
309
CELLSTYLE_END
300
CELLSTYLE
  1
TABLEFORMAT_BEGIN
 90
        5
170
     1
 91
        0
 92
        0
 62
   257
 93
        1
300
CONTENTFORMAT
  1
CONTENTFORMAT_BEGIN
 90
        0
 91
        0
 92
        4
 93
        0
300

 40
0.0
140
1.0
 94
        2
 62
     0
340
11
144
0.18
309
CONTENTFORMAT_END
171
     0
 94
        6
 95
        1
302
GRIDFORMAT
  1
GRIDFORMAT_BEGIN
 90
        0
 91
        1
 62
     0
 92
       -2
340
0
 93
        0
 40
0.045
309
GRIDFORMAT_END
 95
        2
302
GRIDFORMAT
  1
GRIDFORMAT_BEGIN
 90
        0
 91
        1
 62
     0
 92
       -2
340
0
 93
        0
 40
0.045
309
GRIDFORMAT_END
 95
        4
302
GRIDFORMAT
  1
GRIDFORMAT_BEGIN
 90
        0
 91
        1
 62
     0
 92
       -2
340
0
 93
        0
 40
0.045
309
GRIDFORMAT_END
 95
        8
302
GRIDFORMAT
  1
GRIDFORMAT_BEGIN
 90
        0
 91
        1
 62
     0
 92
       -2
340
0
 93
        0
 40
0.045
309
GRIDFORMAT_END
 95
       16
302
GRIDFORMAT
  1
GRIDFORMAT_BEGIN
 90
        0
 91
        1
 62
     0
 92
       -2
340
0
 93
        0
 40
0.045
309
GRIDFORMAT_END
 95
       32
302
GRIDFORMAT
  1
GRIDFORMAT_BEGIN
 90
        0
 91
        1
 62
     0
 92
       -2
340
0
 93
        0
 40
0.045
309
GRIDFORMAT_END
309
TABLEFORMAT_END
  1
CELLSTYLE_BEGIN
 90
        3
 91
        2
300
_DATA
309
CELLSTYLE_END
  0
XRECORD
  5
538F
102
{ACAD_REACTORS
330
52C0
102
}
330
52C0
100
AcDbXrecord
280
     1
102
ACAD_ROUNDTRIP_PRE2007_TABLESTYLE
 90
        4
 91
        0
  1

 92
        4
 93
        0
  2

 94
        4
 95
        0
  3

  0
ENDSEC
  0
EOF
