  0
SECTION
  2
HEADER
  9
$ACADVER
  1
AC1009
  9
$INSBASE
 10
0.0
 20
0.0
 30
0.0
  9
$EXTMIN
 10
-13551.315060000001
 20
-5692.8445980438601
 30
0.0
  9
$EXTMAX
 10
-8943.748538306616
 20
-2349.5691139999999
 30
0.0
  9
$LIMMIN
 10
0.0
 20
0.0
  9
$LIMMAX
 10
420.0
 20
297.0
  9
$ORTHOMODE
 70
     1
  9
$REGENMODE
 70
     1
  9
$FILLMODE
 70
     1
  9
$QTEXTMODE
 70
     0
  9
$MIRRTEXT
 70
     1
  9
$DRAGMODE
 70
     2
  9
$LTSCALE
 40
1.0
  9
$OSMODE
 70
   163
  9
$ATTMODE
 70
     1
  9
$TEXTSIZE
 40
40.0
  9
$TRACEWID
 40
1.0
  9
$TEXTSTYLE
  7
STANDARD
  9
$CLAYER
  8
0
  9
$CELTYPE
  6
BYLAYER
  9
$CECOLOR
 62
   256
  9
$DIMSCALE
 40
1.0
  9
$DIMASZ
 40
80.0
  9
$DIMEXO
 40
0.625
  9
$DIMDLI
 40
40.0
  9
$DIMRND
 40
0.0
  9
$DIMDLE
 40
0.0
  9
$DIMEXE
 40
1.25
  9
$DIMTP
 40
0.0
  9
$DIMTM
 40
0.0
  9
$DIMTXT
 40
100.0
  9
$DIMCEN
 40
2.5
  9
$DIMTSZ
 40
0.0
  9
$DIMTOL
 70
     0
  9
$DIMLIM
 70
     0
  9
$DIMTIH
 70
     0
  9
$DIMTOH
 70
     0
  9
$DIMSE1
 70
     0
  9
$DIMSE2
 70
     0
  9
$DIMTAD
 70
     1
  9
$DIMZIN
 70
     8
  9
$DIMBLK
  1

  9
$DIMASO
 70
     1
  9
$DIMSHO
 70
     1
  9
$DIMPOST
  1

  9
$DIMAPOST
  1

  9
$DIMALT
 70
     0
  9
$DIMALTD
 70
     2
  9
$DIMALTF
 40
0.0394
  9
$DIMLFAC
 40
1.0
  9
$DIMTOFL
 70
     1
  9
$DIMTVP
 40
0.0
  9
$DIMTIX
 70
     0
  9
$DIMSOXD
 70
     0
  9
$DIMSAH
 70
     0
  9
$DIMBLK1
  1

  9
$DIMBLK2
  1

  9
$DIMSTYLE
  2
STANDARD
  9
$DIMCLRD
 70
     0
  9
$DIMCLRE
 70
     0
  9
$DIMCLRT
 70
     0
  9
$DIMTFAC
 40
0.0625
  9
$DIMGAP
 40
40.0
  9
$LUNITS
 70
     2
  9
$LUPREC
 70
     4
  9
$SKETCHINC
 40
1.0
  9
$FILLETRAD
 40
0.0
  9
$AUNITS
 70
     0
  9
$AUPREC
 70
     0
  9
$MENU
  1
acad
  9
$ELEVATION
 40
0.0
  9
$PELEVATION
 40
0.0
  9
$THICKNESS
 40
0.0
  9
$LIMCHECK
 70
     0
  9
$BLIPMODE
 70
     0
  9
$CHAMFERA
 40
10.0
  9
$CHAMFERB
 40
10.0
  9
$SKPOLY
 70
     0
  9
$TDCREATE
 40
2454888.6846640049
  9
$TDUPDATE
 40
2455209.7217636919
  9
$TDINDWG
 40
0.0477964005
  9
$TDUSRTIMER
 40
0.0477964005
  9
$USRTIMER
 70
     1
  9
$ANGBASE
 50
0.0
  9
$ANGDIR
 70
     0
  9
$PDMODE
 70
    98
  9
$PDSIZE
 40
0.0
  9
$PLINEWID
 40
0.0
  9
$COORDS
 70
     1
  9
$SPLFRAME
 70
     0
  9
$SPLINETYPE
 70
     6
  9
$SPLINESEGS
 70
     8
  9
$ATTDIA
 70
     0
  9
$ATTREQ
 70
     1
  9
$HANDLING
 70
     1
  9
$HANDSEED
  5
5399
  9
$SURFTAB1
 70
     6
  9
$SURFTAB2
 70
     6
  9
$SURFTYPE
 70
     6
  9
$SURFU
 70
     6
  9
$SURFV
 70
     6
  9
$UCSNAME
  2

  9
$UCSORG
 10
0.0
 20
0.0
 30
0.0
  9
$UCSXDIR
 10
1.0
 20
0.0
 30
0.0
  9
$UCSYDIR
 10
0.0
 20
1.0
 30
0.0
  9
$PUCSNAME
  2

  9
$PUCSORG
 10
0.0
 20
0.0
 30
0.0
  9
$PUCSXDIR
 10
1.0
 20
0.0
 30
0.0
  9
$PUCSYDIR
 10
0.0
 20
1.0
 30
0.0
  9
$USERI1
 70
     0
  9
$USERI2
 70
     0
  9
$USERI3
 70
     0
  9
$USERI4
 70
     0
  9
$USERI5
 70
     0
  9
$USERR1
 40
0.0
  9
$USERR2
 40
0.0
  9
$USERR3
 40
0.0
  9
$USERR4
 40
0.0
  9
$USERR5
 40
0.0
  9
$WORLDVIEW
 70
     1
  9
$SHADEDGE
 70
     3
  9
$SHADEDIF
 70
    70
  9
$TILEMODE
 70
     1
  9
$MAXACTVP
 70
    16
  9
$PLIMCHECK
 70
     0
  9
$PEXTMIN
 10
1.0000000000000000E+020
 20
1.0000000000000000E+020
 30
1.0000000000000000E+020
  9
$PEXTMAX
 10
-1.0000000000000000E+020
 20
-1.0000000000000000E+020
 30
-1.0000000000000000E+020
  9
$PLIMMIN
 10
0.0
 20
0.0
  9
$PLIMMAX
 10
420.0
 20
297.0
  9
$UNITMODE
 70
     0
  9
$VISRETAIN
 70
     0
  9
$PLINEGEN
 70
     0
  9
$PSLTSCALE
 70
     1
  0
ENDSEC
  0
SECTION
  2
TABLES
  0
TABLE
  2
VPORT
 70
     1
  0
VPORT
  2
*ACTIVE
 70
     0
 10
0.0
 20
0.0
 11
1.0
 21
1.0
 12
-9567.0493507191131
 22
-4021.1368355535151
 13
0.0
 23
0.0
 14
10.0
 24
10.0
 15
10.0
 25
10.0
 16
0.0
 26
0.0
 36
1.0
 17
0.0
 27
0.0
 37
0.0
 40
3383.7933134830992
 41
2.9570552147239262
 42
50.0
 43
0.0
 44
0.0
 50
0.0
 51
0.0
 71
     0
 72
   100
 73
     1
 74
     0
 75
     0
 76
     0
 77
     0
 78
     0
  0
ENDTAB
  0
TABLE
  2
LTYPE
 70
     1
  0
LTYPE
  2
CONTINUOUS
 70
     0
  3
Solid line
 72
    65
 73
     0
 40
0.0
  0
ENDTAB
  0
TABLE
  2
LAYER
 70
     6
  0
LAYER
  2
0
 70
     0
 62
     7
  6
CONTINUOUS
  0
LAYER
  2
CORTE
 70
     0
 62
     1
  6
CONTINUOUS
  0
LAYER
  2
CORTE1
 70
     0
 62
     5
  6
CONTINUOUS
  0
LAYER
  2
DIBU
 70
     0
 62
     7
  6
CONTINUOUS
  0
LAYER
  2
AUX
 70
     0
 62
     7
  6
CONTINUOUS
  0
LAYER
  2
DEFPOINTS
 70
     0
 62
     7
  6
CONTINUOUS
  0
ENDTAB
  0
TABLE
  2
STYLE
 70
     1
  0
STYLE
  2
STANDARD
 70
     0
 40
0.0
 41
1.0
 50
0.0
 71
     0
 42
40.0
  3
txt
  4

  0
ENDTAB
  0
TABLE
  2
VIEW
 70
     0
  0
ENDTAB
  0
TABLE
  2
UCS
 70
     0
  0
ENDTAB
  0
TABLE
  2
APPID
 70
     7
  0
APPID
  2
ACAD
 70
     0
  0
APPID
  2
ACAD_PSEXT
 70
     0
  0
APPID
  2
ACAD_MLEADERVER
 70
     0
  0
APPID
  2
ACAD_EXEMPT_FROM_CAD_STANDARDS
 70
     0
  0
APPID
  2
ACADANNOPO
 70
     0
  0
APPID
  2
ACAD_DSTYLE_DIMJAG
 70
     0
  0
APPID
  2
ACAD_DSTYLE_DIMTALN
 70
     0
  0
ENDTAB
  0
TABLE
  2
DIMSTYLE
 70
     1
  0
DIMSTYLE
  2
STANDARD
 70
     0
  3

  4

  5

  6

  7

 40
1.0
 41
0.18
 42
0.0625
 43
0.38
 44
0.18
 45
0.0
 46
0.0
 47
0.0
 48
0.0
140
0.18
141
0.09
142
0.0
143
25.399999999999999
144
1.0
145
0.0
146
1.0
147
0.09
 71
     0
 72
     0
 73
     1
 74
     1
 75
     0
 76
     0
 77
     0
 78
     0
170
     0
171
     2
172
     0
173
     0
174
     0
175
     0
176
     0
177
     0
178
     0
  0
ENDTAB
  0
ENDSEC
  0
SECTION
  2
BLOCKS
  0
BLOCK
  8
0
  2
$MODEL_SPACE
 70
     0
 10
0.0
 20
0.0
 30
0.0
  3
$MODEL_SPACE
  1

  0
ENDBLK
  5
39
  8
0
  0
BLOCK
 67
     1
  8
0
  2
$PAPER_SPACE
 70
     0
 10
0.0
 20
0.0
 30
0.0
  3
$PAPER_SPACE
  1

  0
ENDBLK
  5
37
 67
     1
  8
0
  0
BLOCK
  8
0
  2
*U1
 70
     1
 10
0.0
 20
0.0
 30
0.0
  3
*U1
  1

  0
TEXT
  5
538E
  8
0
 10
-11421.38943660103
 20
-5634.935501078462
 30
0.0
 40
100.0
  1
100
  0
ENDBLK
  5
5390
  8
0
  0
BLOCK
  8
0
  2
*U2
 70
     1
 10
0.0
 20
0.0
 30
0.0
  3
*U2
  1

  0
TEXT
  5
5392
  8
0
 62
     0
 10
-13036.42610071026
 20
-5524.6981782209668
 30
0.0
 40
100.0
  1
10.7984
 50
90.0
  0
ENDBLK
  5
5394
  8
0
  0
BLOCK
  8
0
  2
*U3
 70
     1
 10
0.0
 20
0.0
 30
0.0
  3
*U3
  1

  0
TEXT
  5
5396
  8
0
 10
-13035.573440410129
 20
-5301.6422437052779
 30
0.0
 40
100.0
  1
1
 50
90.0
  0
ENDBLK
  5
5398
  8
0
  0
ENDSEC
  0
SECTION
  2
ENTITIES
  0
LINE
  5
55A
  8
DIBU
 10
-13551.315060000001
 20
-3075.0953679999998
 30
0.0
 11
-13551.315060000001
 21
-3175.6953570000001
 31
0.0
  0
LINE
  5
55B
  8
DIBU
 10
-13551.315060000001
 20
-3175.6953570000001
 30
0.0
 11
-13251.315054000001
 21
-3175.6953570000001
 31
0.0
  0
LINE
  5
55D
  8
DIBU
 10
-13251.315054000001
 20
-3075.0953679999998
 30
0.0
 11
-13551.315060000001
 21
-3075.0953679999998
 31
0.0
  0
LINE
  5
A36
  8
DIBU
 10
-13041.315059
 20
-3075.0953570000001
 30
0.0
 11
-13551.315060000001
 21
-3075.0953570000001
 31
0.0
  0
LINE
  5
A37
  8
DIBU
 10
-13551.315060000001
 20
-3075.0953570000001
 30
0.0
 11
-9486.3149759999997
 21
-3075.0953570000011
 31
0.0
  0
LINE
  5
A39
  8
DIBU
 10
-9486.3149759999997
 20
-2974.4953719999999
 30
0.0
 11
-13551.315060000001
 21
-2974.4953719999999
 31
0.0
  0
LINE
  5
A3A
  8
DIBU
 10
-13551.315060000001
 20
-2974.4953719999999
 30
0.0
 11
-13041.315059
 21
-2974.4953719999999
 31
0.0
  0
LINE
  5
A3C
  8
DIBU
 10
-13551.315060000001
 20
-2974.4953719999999
 30
0.0
 11
-13551.315060000001
 21
-3075.0953570000001
 31
0.0
  0
LINE
  5
A3D
  8
DIBU
 10
-13551.315060000001
 20
-3075.0953570000001
 30
0.0
 11
-13551.315060000001
 21
-2874.4953720000012
 31
0.0
  0
LINE
  5
B4D
  8
DIBU
 10
-13551.315060000001
 20
-3175.6953570000001
 30
0.0
 11
-9486.3149759999997
 21
-3175.6953570000001
 31
0.0
  0
LINE
  5
B4F
  8
DIBU
 10
-13051.315060000001
 20
-3276.2953539999999
 30
0.0
 11
-13551.315060000001
 21
-3276.2953539999999
 31
0.0
  0
LINE
  5
B50
  8
DIBU
 10
-13551.315060000001
 20
-3276.2953539999999
 30
0.0
 11
-13551.315060000001
 21
-3175.6953570000001
 31
0.0
  0
LINE
  5
1376
  8
DIBU
 10
-13551.315060000001
 20
-3276.2953539999999
 30
0.0
 11
-13551.315060000001
 21
-3376.8953499999998
 31
0.0
  0
LINE
  5
1377
  8
DIBU
 10
-13551.315060000001
 20
-3376.8953499999998
 30
0.0
 11
-9486.3149759999997
 21
-3376.8953499999998
 31
0.0
  0
LINE
  5
1379
  8
DIBU
 10
-9486.3149759999997
 20
-3276.2953539999999
 30
0.0
 11
-13551.315060000001
 21
-3276.2953539999999
 31
0.0
  0
LINE
  5
1C12
  8
DIBU
 10
-13551.315060000001
 20
-3376.8953499999998
 30
0.0
 11
-13551.315060000001
 21
-3477.4953390000001
 31
0.0
  0
LINE
  5
1C13
  8
DIBU
 10
-13551.315060000001
 20
-3477.4953390000001
 30
0.0
 11
-13251.315054000001
 21
-3477.4953390000001
 31
0.0
  0
LINE
  5
1C15
  8
DIBU
 10
-13251.315054000001
 20
-3376.8953499999998
 30
0.0
 11
-13551.315060000001
 21
-3376.8953499999998
 31
0.0
  0
LINE
  5
1D26
  8
DIBU
 10
-12741.315053
 20
-3477.4953350000001
 30
0.0
 11
-13251.315054000001
 21
-3477.4953350000001
 31
0.0
  0
LINE
  5
1D27
  8
DIBU
 10
-13251.315054000001
 20
-3477.4953350000001
 30
0.0
 11
-9486.3149759999997
 21
-3477.4953350000001
 31
0.0
  0
LINE
  5
1D2A
  8
DIBU
 10
-13251.315054000001
 20
-3376.8953499999998
 30
0.0
 11
-12741.315053
 21
-3376.8953499999998
 31
0.0
  0
LINE
  5
2207
  8
DIBU
 10
-9486.3149759999997
 20
-4181.6953670000003
 30
0.0
 11
-9486.3149759999997
 21
-2874.4953719999999
 31
0.0
  0
LINE
  5
25C2
  8
DIBU
 10
-13041.315059
 20
-3578.095339
 30
0.0
 11
-13551.315060000001
 21
-3578.095339
 31
0.0
  0
LINE
  5
25C3
  8
DIBU
 10
-13551.315060000001
 20
-3578.095339
 30
0.0
 11
-12786.315059
 21
-3578.095339
 31
0.0
  0
LINE
  5
25C5
  8
DIBU
 10
-12786.315059
 20
-3477.495354000001
 30
0.0
 11
-13551.315060000001
 21
-3477.495354000001
 31
0.0
  0
LINE
  5
25C6
  8
DIBU
 10
-13551.315060000001
 20
-3477.495354000001
 30
0.0
 11
-13041.315059
 21
-3477.495354000001
 31
0.0
  0
LINE
  5
25C7
  8
DIBU
 10
-13041.315059
 20
-3477.495354000001
 30
0.0
 11
-13551.315060000001
 21
-3477.495354000001
 31
0.0
  0
LINE
  5
25C8
  8
DIBU
 10
-13551.315060000001
 20
-3477.495354000001
 30
0.0
 11
-13551.315060000001
 21
-3578.095339
 31
0.0
  0
LINE
  5
25C9
  8
DIBU
 10
-13551.315060000001
 20
-3578.095339
 30
0.0
 11
-13551.315060000001
 21
-3477.495354000001
 31
0.0
  0
LINE
  5
26D9
  8
DIBU
 10
-13551.315060000001
 20
-3678.6953389999999
 30
0.0
 11
-13051.315060000001
 21
-3678.6953389999999
 31
0.0
  0
LINE
  5
26DB
  8
DIBU
 10
-13051.315060000001
 20
-3779.2953349999998
 30
0.0
 11
-13551.315060000001
 21
-3779.2953349999998
 31
0.0
  0
LINE
  5
26DC
  8
DIBU
 10
-13551.315060000001
 20
-3779.2953349999998
 30
0.0
 11
-13551.315060000001
 21
-3678.6953389999999
 31
0.0
  0
LINE
  5
2F02
  8
DIBU
 10
-13551.315060000001
 20
-3779.2953349999998
 30
0.0
 11
-13551.315060000001
 21
-3879.8953310000002
 31
0.0
  0
LINE
  5
2F03
  8
DIBU
 10
-13551.315060000001
 20
-3879.8953310000002
 30
0.0
 11
-12551.315060000001
 21
-3879.8953310000002
 31
0.0
  0
LINE
  5
2F05
  8
DIBU
 10
-9486.3149759999997
 20
-3779.2953349999998
 30
0.0
 11
-13551.315060000001
 21
-3779.2953349999998
 31
0.0
  0
LINE
  5
367F
  8
DIBU
 10
-13551.315060000001
 20
-3879.8953310000002
 30
0.0
 11
-13551.315060000001
 21
-3980.4953820000001
 31
0.0
  0
LINE
  5
3680
  8
DIBU
 10
-13551.315060000001
 20
-3980.4953820000001
 30
0.0
 11
-9486.3149759999997
 21
-3980.4953820000001
 31
0.0
  0
LINE
  5
3682
  8
DIBU
 10
-9486.3149759999997
 20
-3879.8953310000002
 30
0.0
 11
-13551.315060000001
 21
-3879.8953310000002
 31
0.0
  0
LINE
  5
3ADD
  8
DIBU
 10
-13551.315060000001
 20
-3578.095339
 30
0.0
 11
-13551.315060000001
 21
-3678.695389
 31
0.0
  0
LINE
  5
3ADE
  8
DIBU
 10
-13551.315060000001
 20
-3678.695389
 30
0.0
 11
-9486.3149759999997
 21
-3678.695389
 31
0.0
  0
LINE
  5
3AE0
  8
DIBU
 10
-9486.3149759999997
 20
-3578.0953389999991
 30
0.0
 11
-13551.315060000001
 21
-3578.095339
 31
0.0
  0
LINE
  5
40D8
  8
DIBU
 10
-13041.315059
 20
-4081.0953669999999
 30
0.0
 11
-13551.315060000001
 21
-4081.0953669999999
 31
0.0
  0
LINE
  5
40D9
  8
DIBU
 10
-13551.315060000001
 20
-4081.0953669999999
 30
0.0
 11
-9486.3149759999997
 21
-4081.0953669999999
 31
0.0
  0
LINE
  5
40DB
  8
DIBU
 10
-12786.315059
 20
-3980.4953820000001
 30
0.0
 11
-13551.315060000001
 21
-3980.4953820000001
 31
0.0
  0
LINE
  5
40DC
  8
DIBU
 10
-13551.315060000001
 20
-3980.4953820000001
 30
0.0
 11
-13041.315059
 21
-3980.4953820000001
 31
0.0
  0
LINE
  5
40DD
  8
DIBU
 10
-13041.315059
 20
-3980.4953820000001
 30
0.0
 11
-13551.315060000001
 21
-3980.4953820000001
 31
0.0
  0
LINE
  5
40DE
  8
DIBU
 10
-13551.315060000001
 20
-3980.4953820000001
 30
0.0
 11
-13551.315060000001
 21
-4081.0953669999999
 31
0.0
  0
LINE
  5
40DF
  8
DIBU
 10
-13551.315060000001
 20
-4081.0953669999999
 30
0.0
 11
-13551.315060000001
 21
-3980.4953820000001
 31
0.0
  0
LINE
  5
41EF
  8
DIBU
 10
-13551.315060000001
 20
-4081.0953779999991
 30
0.0
 11
-13551.315060000001
 21
-4181.6953670000003
 31
0.0
  0
LINE
  5
41F0
  8
DIBU
 10
-13551.315060000001
 20
-4181.6953670000003
 30
0.0
 11
-9486.3149759999997
 21
-4181.6953670000003
 31
0.0
  0
LINE
  5
41F2
  8
DIBU
 10
-13251.315054000001
 20
-4081.0953779999991
 30
0.0
 11
-13551.315060000001
 21
-4081.0953779999991
 31
0.0
  0
LINE
  5
47E2
  8
AUX
 10
-13551.315060000001
 20
-4231.6953670000003
 30
0.0
 11
-13551.315060000001
 21
-4622.7578670000003
 31
0.0
  0
LINE
  5
47E3
  8
AUX
 10
-9486.3149759999997
 20
-4231.6953629999998
 30
0.0
 11
-9486.3149759999997
 21
-4622.7578670000003
 31
0.0
  0
LINE
  5
47E4
  8
AUX
 10
-13551.315060000001
 20
-4572.7578670000003
 30
0.0
 11
-9486.3149759999997
 21
-4572.7578670000003
 31
0.0
  0
LINE
  5
47E5
  8
AUX
 10
-13451.315060000001
 20
-4589.4278670000003
 30
0.0
 11
-13551.315060000001
 21
-4572.7578670000003
 31
0.0
  0
LINE
  5
47E6
  8
AUX
 10
-13551.315060000001
 20
-4572.7578670000003
 30
0.0
 11
-13451.315060000001
 21
-4556.0878670000002
 31
0.0
  0
LINE
  5
47E7
  8
AUX
 10
-13451.315060000001
 20
-4556.0878670000002
 30
0.0
 11
-13451.315060000001
 21
-4589.4278670000003
 31
0.0
  0
LINE
  5
47E8
  8
AUX
 10
-9586.3149759999997
 20
-4556.0878670000002
 30
0.0
 11
-9486.3149759999997
 21
-4572.7578670000003
 31
0.0
  0
LINE
  5
47E9
  8
AUX
 10
-9486.3149759999997
 20
-4572.7578670000003
 30
0.0
 11
-9586.3149759999997
 21
-4589.4278670000003
 31
0.0
  0
LINE
  5
47EA
  8
AUX
 10
-9586.3149759999997
 20
-4589.4278670000003
 30
0.0
 11
-9586.3149759999997
 21
-4556.0878670000002
 31
0.0
  0
LINE
  5
47EB
  8
AUX
 10
-9436.3149759999997
 20
-2874.4953800000012
 30
0.0
 11
-8943.748538306616
 21
-2874.4953800000012
 31
0.0
  0
LINE
  5
47EC
  8
AUX
 10
-9436.3149759999997
 20
-4181.6953629999998
 30
0.0
 11
-8943.748538306616
 21
-4181.6953629999998
 31
0.0
  0
LINE
  5
47ED
  8
AUX
 10
-8998.2773935997484
 20
-2874.4953800000012
 30
0.0
 11
-8998.2773935997484
 21
-4181.6953629999998
 31
0.0
  0
LINE
  5
47EE
  8
AUX
 10
-9014.9473935997485
 20
-2974.4953799999998
 30
0.0
 11
-8998.2773935997484
 21
-2874.4953800000012
 31
0.0
  0
LINE
  5
47EF
  8
AUX
 10
-8998.2773935997484
 20
-2874.4953800000012
 30
0.0
 11
-8981.6073935997483
 21
-2974.4953799999998
 31
0.0
  0
LINE
  5
47F0
  8
AUX
 10
-8981.6073935997483
 20
-2974.4953799999998
 30
0.0
 11
-9014.9473935997485
 21
-2974.4953799999998
 31
0.0
  0
LINE
  5
47F1
  8
AUX
 10
-8981.6073935997483
 20
-4081.6953629999998
 30
0.0
 11
-8998.2773935997484
 21
-4181.6953629999998
 31
0.0
  0
LINE
  5
47F2
  8
AUX
 10
-8998.2773935997484
 20
-4181.6953629999998
 30
0.0
 11
-9014.9473935997485
 21
-4081.6953629999998
 31
0.0
  0
LINE
  5
47F3
  8
AUX
 10
-9014.9473935997485
 20
-4081.6953629999998
 30
0.0
 11
-8981.6073935997483
 21
-4081.6953629999998
 31
0.0
  0
LINE
  5
47FC
  8
AUX
 10
-9436.3149759999997
 20
-2975.0953679999998
 30
0.0
 11
-9299.0428890000003
 21
-2975.0953679999998
 31
0.0
  0
LINE
  5
47FD
  8
AUX
 10
-9349.0428890000003
 20
-2874.4953800000012
 30
0.0
 11
-9349.0428890000003
 21
-2349.5691139999999
 31
0.0
  0
LINE
  5
47FE
  8
AUX
 10
-9332.3728890000002
 20
-2774.4953800000012
 30
0.0
 11
-9349.0428890000003
 21
-2874.4953800000012
 31
0.0
  0
LINE
  5
47FF
  8
AUX
 10
-9349.0428890000003
 20
-2874.4953800000012
 30
0.0
 11
-9365.7128890000004
 21
-2774.4953800000012
 31
0.0
  0
LINE
  5
4800
  8
AUX
 10
-9365.7128890000004
 20
-2774.4953800000012
 30
0.0
 11
-9332.3728890000002
 21
-2774.4953800000012
 31
0.0
  0
LINE
  5
4801
  8
AUX
 10
-9349.0428890000003
 20
-2975.0953679999998
 30
0.0
 11
-9349.0428890000003
 21
-3175.0953679999998
 31
0.0
  0
LINE
  5
4802
  8
AUX
 10
-9365.7128890000004
 20
-3075.0953679999998
 30
0.0
 11
-9349.0428890000003
 21
-2975.0953679999998
 31
0.0
  0
LINE
  5
4803
  8
AUX
 10
-9349.0428890000003
 20
-2975.0953679999998
 30
0.0
 11
-9332.3728890000002
 21
-3075.0953679999998
 31
0.0
  0
LINE
  5
4804
  8
AUX
 10
-9332.3728890000002
 20
-3075.0953679999998
 30
0.0
 11
-9365.7128890000004
 21
-3075.0953679999998
 31
0.0
  0
TEXT
  5
4815
  8
AUX
 10
-13690.399614
 20
-2349.3810880000001
 30
0.0
 40
150.0
  1

  0
TEXT
  5
4816
  8
AUX
 10
-11702.206627
 20
-4532.3083110821071
 30
0.0
 40
100.0
  1
4000
  0
TEXT
  5
4817
  8
AUX
 10
-9045.5703642805347
 20
-3670.4881884610618
 30
0.0
 40
100.0
  1
1300
 50
90.0
  0
TEXT
  5
4819
  8
AUX
 10
-9389.5126014502785
 20
-2708.799884
 30
0.0
 40
100.0
  1
100
 50
90.0
  0
TEXT
  5
481C
  8
AUX
 10
-13366.623453
 20
-5131.436068
 30
0.0
 40
70.0
  1

  0
TEXT
  5
481E
  8
AUX
 10
-13366.623453
 20
-5341.436068
 30
0.0
 40
70.0
  1

  0
TEXT
  5
4824
  8
AUX
 10
-13366.623453
 20
-5971.436068
 30
0.0
 40
70.0
  1

  0
POLYLINE
  5
4ECD
  8
0
 66
     1
 10
0.0
 20
0.0
 30
0.0
 70
     2
  0
VERTEX
  5
4ECE
  8
0
 10
-12292.658395003869
 20
-5262.3071497606779
 30
0.0
 42
-0.1215994988457389
  0
VERTEX
  5
4ECF
  8
0
 10
-12210.989548620169
 20
-5271.8591696263129
 30
0.0
 42
0.1056979417585127
 70
     1
  0
VERTEX
  5
4ED0
  8
0
 10
-12190.400735826701
 20
-5272.3071497606779
 30
0.0
 42
0.1078418749257769
  0
VERTEX
  5
4ED1
  8
0
 10
-12175.30762337192
 20
-5265.8597343214733
 30
0.0
 42
-0.1546478595467482
 70
     1
  0
VERTEX
  5
4ED2
  8
0
 10
-12164.281736040661
 20
-5262.3071497606779
 30
0.0
 42
-0.1804007426235365
  0
VERTEX
  5
4ED3
  8
0
 10
-12151.63292059913
 20
-5266.9548269239149
 30
0.0
 42
0.1669612857236485
 70
     1
  0
VERTEX
  5
4ED4
  8
0
 10
-12138.16278667702
 20
-5272.3071497606779
 30
0.0
 42
0.1377807434661302
  0
VERTEX
  5
4ED5
  8
0
 10
-12120.109393765209
 20
-5268.1468460737669
 30
0.0
 42
-0.1158283502867649
 70
     1
  0
VERTEX
  5
4ED6
  8
0
 10
-12098.984286997969
 20
-5262.3071497606779
 30
0.0
 42
-0.1260058766128204
  0
VERTEX
  5
4ED7
  8
0
 10
-12072.62191311766
 20
-5267.9707721764298
 30
0.0
 42
0.1416031919178112
 70
     1
  0
VERTEX
  5
4ED8
  8
0
 10
-12048.92292116379
 20
-5272.3071497606779
 30
0.0
 42
0.1182297497458096
  0
VERTEX
  5
4ED9
  8
0
 10
-12034.99078683868
 20
-5267.4457124753571
 30
0.0
 42
-0.1142582045074363
 70
     1
  0
VERTEX
  5
4EDA
  8
0
 10
-12020.62733806225
 20
-5262.3071497606779
 30
0.0
 42
-0.2321895392944741
  0
VERTEX
  5
4EDB
  8
0
 10
-12003.137333752969
 20
-5268.4991035238354
 30
0.0
 42
0.2823827117993129
 70
     1
  0
VERTEX
  5
4EDC
  8
0
 10
-11987.9786387521
 20
-5272.3071497606779
 30
0.0
 42
0.1766976244461863
  0
VERTEX
  5
4EDD
  8
0
 10
-11981.441036815249
 20
-5267.2948159036532
 30
0.0
 42
-0.1773270153938223
 70
     1
  0
VERTEX
  5
4EDE
  8
0
 10
-11974.919138859081
 20
-5262.3071497606779
 30
0.0
 42
-0.2058351738198912
  0
VERTEX
  5
4EDF
  8
0
 10
-11953.789949908411
 20
-5264.5152421599732
 30
0.0
 42
0.1331294588025776
 70
     1
  0
VERTEX
  5
4EE0
  8
0
 10
-11922.681189709399
 20
-5272.3071497606779
 30
0.0
 42
0.0832255166851424
  0
VERTEX
  5
4EE1
  8
0
 10
-11888.225993795761
 20
-5265.8468394471156
 30
0.0
 42
-0.1097242647440611
 70
     1
  0
VERTEX
  5
4EE2
  8
0
 10
-11861.736856875321
 20
-5262.3071497606797
 30
0.0
 42
-0.1094066769750613
  0
VERTEX
  5
4EE3
  8
0
 10
-11844.97017262635
 20
-5267.5613696846412
 30
0.0
 42
0.1161466597373166
 70
     1
  0
VERTEX
  5
4EE4
  8
0
 10
-11829.08815756516
 20
-5272.3071497606779
 30
0.0
 42
0.1635239807755977
  0
VERTEX
  5
4EE5
  8
0
 10
-11810.53136823448
 20
-5267.2698286681898
 30
0.0
 42
-0.1646740425977135
 70
     1
  0
VERTEX
  5
4EE6
  8
0
 10
-11792.086241201619
 20
-5262.3071497606779
 30
0.0
 42
-0.1056313494205058
  0
VERTEX
  5
4EE7
  8
0
 10
-11777.43529006312
 20
-5266.4262472078526
 30
0.0
 42
0.0845682404093054
 70
     1
  0
VERTEX
  5
4EE8
  8
0
 10
-11759.437541891461
 20
-5272.3071497606779
 30
0.0
 42
0.1575342193449952
  0
VERTEX
  5
4EE9
  8
0
 10
-11723.899935947829
 20
-5266.3745107412333
 30
0.0
 42
-0.177447294337322
 70
     1
  0
VERTEX
  5
4EEA
  8
0
 10
-11691.96350953326
 20
-5262.3071497606779
 30
0.0
 42
-0.0917559328231345
  0
VERTEX
  5
4EEB
  8
0
 10
-11679.286632360931
 20
-5267.7802082616981
 30
0.0
 42
0.1046141200079548
 70
     1
  0
VERTEX
  5
4EEC
  8
0
 10
-11668.021093062731
 20
-5272.3071497606779
 30
0.0
 42
0.1516230715845765
  0
VERTEX
  5
4EED
  8
0
 10
-11640.893619011909
 20
-5268.8341524462267
 30
0.0
 42
-0.1193723253288798
 70
     1
  0
VERTEX
  5
4EEE
  8
0
 10
-11607.07681065104
 20
-5262.3071497606779
 30
0.0
 42
-0.0610149335770133
  0
VERTEX
  5
4EEF
  8
0
 10
-11577.62576577984
 20
-5267.3272462562463
 30
0.0
 42
0.0613026562254159
 70
     1
  0
VERTEX
  5
4EF0
  8
0
 10
-11548.309061132461
 20
-5272.3071497606779
 30
0.0
 42
0.1142529691874242
  0
VERTEX
  5
4EF1
  8
0
 10
-11513.552885820771
 20
-5265.9211005809011
 30
0.0
 42
-0.1421988557679846
 70
     1
  0
VERTEX
  5
4EF2
  8
0
 10
-11485.18819540527
 20
-5262.3071497606779
 30
0.0
 42
-0.0996974748390703
  0
VERTEX
  5
4EF3
  8
0
 10
-11472.79957965679
 20
-5266.8928341993487
 30
0.0
 42
0.0890552141269125
 70
     1
  0
VERTEX
  5
4EF4
  8
0
 10
-11459.069246041619
 20
-5272.3071497606779
 30
0.0
 42
0.169585575600112
  0
VERTEX
  5
4EF5
  8
0
 10
-11427.66475000173
 20
-5267.9454310770552
 30
0.0
 42
-0.1558100318209038
 70
     1
  0
VERTEX
  5
4EF6
  8
0
 10
-11393.771746576531
 20
-5262.3071497606779
 30
0.0
 42
-0.0845160049936214
  0
VERTEX
  5
4EF7
  8
0
 10
-11376.031831191551
 20
-5268.0469019700877
 30
0.0
 42
0.1019584614413041
 70
     1
  0
VERTEX
  5
4EF8
  8
0
 10
-11361.12304726639
 20
-5272.3071497606779
 30
0.0
 42
0.146842217971711
  0
VERTEX
  5
4EF9
  8
0
 10
-11339.989877018519
 20
-5267.6594414119663
 30
0.0
 42
-0.1376189916329282
 70
     1
  0
VERTEX
  5
4EFA
  8
0
 10
-11317.59138095633
 20
-5262.3071497606779
 30
0.0
 42
-0.0982599490396583
  0
VERTEX
  5
4EFB
  8
0
 10
-11297.15246401207
 20
-5267.1975084825872
 30
0.0
 42
0.0958638244148462
 70
     1
  0
VERTEX
  5
4EFC
  8
0
 10
-11276.23634838416
 20
-5272.3071497606779
 30
0.0
 42
0.1086005667570804
  0
VERTEX
  5
4EFD
  8
0
 10
-11246.936125427341
 20
-5267.3409641670223
 30
0.0
 42
-0.1079452215061644
 70
     1
  0
VERTEX
  5
4EFE
  8
0
 10
-11217.468649287979
 20
-5262.3071497606779
 30
0.0
 42
-0.0697597583604851
  0
VERTEX
  5
4EFF
  8
0
 10
-11196.98509757049
 20
-5266.1438014629512
 30
0.0
 42
0.0516485649996907
 70
     1
  0
VERTEX
  5
4F00
  8
0
 10
-11169.583816346911
 20
-5272.3071497606779
 30
0.0
 42
0.1918393175343787
  0
VERTEX
  5
4F01
  8
0
 10
-11132.53704609902
 20
-5262.4109804615946
 30
0.0
 42
-0.3290381692335023
 70
     1
  0
VERTEX
  5
4F02
  8
0
 10
-11108.639533935209
 20
-5262.3071497606779
 30
0.0
 42
-0.1885535251852392
  0
VERTEX
  5
4F03
  8
0
 10
-11105.33732888333
 20
-5267.4972338920907
 30
0.0
 42
0.2011959264999968
 70
     1
  0
VERTEX
  5
4F04
  8
0
 10
-11102.10978398871
 20
-5272.3071497606779
 30
0.0
 42
0.307066649868549
  0
VERTEX
  5
4F05
  8
0
 10
-11081.68614034806
 20
-5272.0383919405249
 30
0.0
 42
-0.1666070656706792
 70
     1
  0
VERTEX
  5
4F06
  8
0
 10
-11047.69525152353
 20
-5262.3071497606779
 30
0.0
 42
-0.071087509726107
  0
VERTEX
  5
4F07
  8
0
 10
-11013.389462771989
 20
-5269.0218075131734
 30
0.0
 42
0.1012017750060307
 70
     1
  0
VERTEX
  5
4F08
  8
0
 10
-10988.92755242734
 20
-5272.3071497606779
 30
0.0
 42
0.1095443914423224
  0
VERTEX
  5
4F09
  8
0
 10
-10971.01635340571
 20
-5267.0317833940499
 30
0.0
 42
-0.1166553136387929
 70
     1
  0
VERTEX
  5
4F0A
  8
0
 10
-10954.102219379291
 20
-5262.3071497606779
 30
0.0
 42
-0.1414522645600583
  0
VERTEX
  5
4F0B
  8
0
 10
-10935.08125755774
 20
-5266.98030880023
 30
0.0
 42
0.1325674236877124
 70
     1
  0
VERTEX
  5
4F0C
  8
0
 10
-10914.92377012263
 20
-5272.3071497606779
 30
0.0
 42
0.1141626951913062
  0
VERTEX
  5
4F0D
  8
0
 10
-10894.64123068112
 20
-5267.5028160972579
 30
0.0
 42
-0.1095276496669902
 70
     1
  0
VERTEX
  5
4F0E
  8
0
 10
-10873.56868712808
 20
-5262.3071497606779
 30
0.0
 42
-0.1249484503351089
  0
VERTEX
  5
4F0F
  8
0
 10
-10849.8964737894
 20
-5267.7265009428338
 30
0.0
 42
0.1351696753946172
 70
     1
  0
VERTEX
  5
4F10
  8
0
 10
-10827.8604879249
 20
-5272.3071497606779
 30
0.0
 42
0.1035749583102381
  0
VERTEX
  5
4F11
  8
0
 10
-10811.190194902611
 20
-5267.690421758567
 30
0.0
 42
-0.0944432883189017
 70
     1
  0
VERTEX
  5
4F12
  8
0
 10
-10793.035154876859
 20
-5262.3071497606779
 30
0.0
 42
-0.1366411256384178
  0
VERTEX
  5
4F13
  8
0
 10
-10765.05216154912
 20
-5267.1587497309993
 30
0.0
 42
0.1333895212108895
 70
     1
  0
VERTEX
  5
4F14
  8
0
 10
-10736.44403909617
 20
-5272.3071497606779
 30
0.0
 42
0.1143622111996159
  0
VERTEX
  5
4F15
  8
0
 10
-10718.97521001717
 20
-5266.6170374695412
 30
0.0
 42
-0.1337828164323631
 70
     1
  0
VERTEX
  5
4F16
  8
0
 10
-10703.79528936363
 20
-5262.3071497606779
 30
0.0
 42
-0.1727923039562317
  0
VERTEX
  5
4F17
  8
0
 10
-10689.932682725521
 20
-5267.0794817546748
 30
0.0
 42
0.1645882245404117
 70
     1
  0
VERTEX
  5
4F18
  8
0
 10
-10675.49975668448
 20
-5272.3071497606779
 30
0.0
 42
0.1859019781634805
  0
VERTEX
  5
4F19
  8
0
 10
-10661.14237029489
 20
-5267.1255485470174
 30
0.0
 42
-0.19290279107567
 70
     1
  0
VERTEX
  5
4F1A
  8
0
 10
-10647.20417358295
 20
-5262.3071497606779
 30
0.0
 42
-0.175773981393109
  0
VERTEX
  5
4F1B
  8
0
 10
-10635.21516887707
 20
-5267.3235395479187
 30
0.0
 42
0.1764307983159752
 70
     1
  0
VERTEX
  5
4F1C
  8
0
 10
-10623.26175711241
 20
-5272.3071497606788
 30
0.0
 42
0.1765992014462564
  0
VERTEX
  5
4F1D
  8
0
 10
-10608.517873970321
 20
-5267.6839883606954
 30
0.0
 42
-0.1634550265441355
 70
     1
  0
VERTEX
  5
4F1E
  8
0
 10
-10592.789641117761
 20
-5262.3071497606779
 30
0.0
 42
-0.1433278140270253
  0
VERTEX
  5
4F1F
  8
0
 10
-10575.391526026469
 20
-5267.2979439583896
 30
0.0
 42
0.14305561679679
 70
     1
  0
VERTEX
  5
4F20
  8
0
 10
-10557.964308069721
 20
-5272.3071497606779
 30
0.0
 42
0.1342281184313097
  0
VERTEX
  5
4F21
  8
0
 10
-10541.051374346711
 20
-5267.6053425286609
 30
0.0
 42
-0.1258736306675923
 70
     1
  0
VERTEX
  5
4F22
  8
0
 10
-10523.139025444059
 20
-5262.3071497606779
 30
0.0
 42
-0.1886489358174883
  0
VERTEX
  5
4F23
  8
0
 10
-10505.443712594481
 20
-5268.482357613756
 30
0.0
 42
0.2332282790389236
 70
     1
  0
VERTEX
  5
4F24
  8
0
 10
-10490.49027571152
 20
-5272.3071497606779
 30
0.0
 42
0.1839542225151218
  0
VERTEX
  5
4F25
  8
0
 10
-10483.01084788739
 20
-5267.4951760347612
 30
0.0
 42
-0.1747588731694239
 70
     1
  0
VERTEX
  5
4F26
  8
0
 10
-10475.254192502989
 20
-5262.3071497606779
 30
0.0
 42
-0.2575360235428277
  0
VERTEX
  5
4F27
  8
0
 10
-10459.86278065532
 20
-5266.4119704787527
 30
0.0
 42
0.2212948576908852
 70
     1
  0
VERTEX
  5
4F28
  8
0
 10
-10442.605493192839
 20
-5272.3071497606779
 30
0.0
 42
0.1552218350131443
  0
VERTEX
  5
4F29
  8
0
 10
-10430.032789001931
 20
-5266.7770747858403
 30
0.0
 42
-0.1756660557390038
 70
     1
  0
VERTEX
  5
4F2A
  8
0
 10
-10418.663076722311
 20
-5262.3071497606797
 30
0.0
 42
-0.2408451760976607
  0
VERTEX
  5
4F2B
  8
0
 10
-10407.537203202821
 20
-5267.6252768535287
 30
0.0
 42
0.2574992393155402
 70
     1
  0
VERTEX
  5
4F2C
  8
0
 10
-10396.89724356728
 20
-5272.3071497606779
 30
0.0
 42
0.2581431002162373
  0
VERTEX
  5
4F2D
  8
0
 10
-10389.160023515171
 20
-5267.0729750928713
 30
0.0
 42
-0.2734707940183903
 70
     1
  0
VERTEX
  5
4F2E
  8
0
 10
-10381.661160358761
 20
-5262.3071497606779
 30
0.0
 42
-0.3144959623965683
  0
VERTEX
  5
4F2F
  8
0
 10
-10374.06503736006
 20
-5267.2530037478637
 30
0.0
 42
0.310490183109198
 70
     1
  0
VERTEX
  5
4F30
  8
0
 10
-10366.425127572629
 20
-5272.3071497606779
 30
0.0
 42
0.1538368302178216
  0
VERTEX
  5
4F31
  8
0
 10
-10358.190298975
 20
-5269.5513427250462
 30
0.0
 42
-0.3700310140832769
 70
     1
  0
VERTEX
  5
4F32
  8
0
 10
-10292.658395003869
 20
-5262.3071497606779
 30
0.0
  0
SEQEND
  5
4F33
  8
0
  0
POLYLINE
  5
4F34
  8
0
 66
     1
 10
0.0
 20
0.0
 30
0.0
  0
VERTEX
  5
4F35
  8
0
 10
-12292.658395003869
 20
-5273.1055777590154
 30
0.0
 42
0.2001611724547608
  0
VERTEX
  5
4F36
  8
0
 10
-12374.327241387589
 20
-5271.8591696263129
 30
0.0
 42
-0.1056979417585127
  0
VERTEX
  5
4F37
  8
0
 10
-12394.91605418106
 20
-5272.3071497606779
 30
0.0
 42
-0.1078418749257769
  0
VERTEX
  5
4F38
  8
0
 10
-12410.009166635829
 20
-5265.8597343214733
 30
0.0
 42
0.1546478595467482
  0
VERTEX
  5
4F39
  8
0
 10
-12421.035053967091
 20
-5262.3071497606779
 30
0.0
 42
0.1804007426235365
  0
VERTEX
  5
4F3A
  8
0
 10
-12433.683869408629
 20
-5266.9548269239149
 30
0.0
 42
-0.1669612857236485
  0
VERTEX
  5
4F3B
  8
0
 10
-12447.15400333073
 20
-5272.3071497606779
 30
0.0
 42
-0.1377807434661302
  0
VERTEX
  5
4F3C
  8
0
 10
-12465.207396242549
 20
-5268.1468460737669
 30
0.0
 42
0.1158283502867649
  0
VERTEX
  5
4F3D
  8
0
 10
-12486.33250300978
 20
-5262.3071497606779
 30
0.0
 42
0.1260058766128204
  0
VERTEX
  5
4F3E
  8
0
 10
-12512.694876890089
 20
-5267.9707721764298
 30
0.0
 42
-0.1416031919178112
  0
VERTEX
  5
4F3F
  8
0
 10
-12536.393868843959
 20
-5272.3071497606779
 30
0.0
 42
-0.1182297497458096
  0
VERTEX
  5
4F40
  8
0
 10
-12550.32600316907
 20
-5267.4457124753571
 30
0.0
 42
0.1142582045074363
  0
VERTEX
  5
4F41
  8
0
 10
-12564.6894519455
 20
-5262.3071497606779
 30
0.0
 42
0.2321895392944741
  0
VERTEX
  5
4F42
  8
0
 10
-12582.17945625478
 20
-5268.4991035238354
 30
0.0
 42
-0.2823827117993129
  0
VERTEX
  5
4F43
  8
0
 10
-12597.33815125565
 20
-5272.3071497606779
 30
0.0
 42
-0.1766976244461863
  0
VERTEX
  5
4F44
  8
0
 10
-12603.8757531925
 20
-5267.2948159036532
 30
0.0
 42
0.1773270153938223
  0
VERTEX
  5
4F45
  8
0
 10
-12610.397651148671
 20
-5262.3071497606779
 30
0.0
 42
0.2058351738198912
  0
VERTEX
  5
4F46
  8
0
 10
-12631.52684009935
 20
-5264.5152421599732
 30
0.0
 42
-0.1331294588025776
  0
VERTEX
  5
4F47
  8
0
 10
-12662.63560029835
 20
-5272.3071497606779
 30
0.0
 42
-0.0832255166851424
  0
VERTEX
  5
4F48
  8
0
 10
-12697.090796211991
 20
-5265.8468394471156
 30
0.0
 42
0.1097242647440611
  0
VERTEX
  5
4F49
  8
0
 10
-12723.579933132431
 20
-5262.3071497606797
 30
0.0
 42
0.1094066769750613
  0
VERTEX
  5
4F4A
  8
0
 10
-12740.34661738141
 20
-5267.5613696846412
 30
0.0
 42
-0.0002339245184536
  0
VERTEX
  5
4F4B
  8
0
 10
-12740.37596053046
 20
-5267.578215613461
 30
0.0
 42
-0.1635239807755977
  0
SEQEND
  5
4F4C
  8
0
  0
POLYLINE
  5
4F4D
  8
0
 66
     1
 10
0.0
 20
0.0
 30
0.0
  0
VERTEX
  5
4F4E
  8
0
 10
-10292.658395003869
 20
-5275.0666156481102
 30
0.0
 42
-0.2145828259701203
  0
VERTEX
  5
4F4F
  8
0
 10
-10210.989548620169
 20
-5271.8591696263129
 30
0.0
 42
0.1056979417585127
  0
VERTEX
  5
4F50
  8
0
 10
-10190.40073582669
 20
-5272.3071497606779
 30
0.0
 42
0.1078418749257769
  0
VERTEX
  5
4F51
  8
0
 10
-10175.30762337192
 20
-5265.8597343214733
 30
0.0
 42
-0.1546478595467482
  0
VERTEX
  5
4F52
  8
0
 10
-10164.281736040661
 20
-5262.3071497606779
 30
0.0
 42
-0.1804007426235365
  0
VERTEX
  5
4F53
  8
0
 10
-10151.632920599121
 20
-5266.9548269239149
 30
0.0
 42
0.1669612857236485
  0
VERTEX
  5
4F54
  8
0
 10
-10138.16278667702
 20
-5272.3071497606779
 30
0.0
 42
0.1377807434661302
  0
VERTEX
  5
4F55
  8
0
 10
-10120.109393765209
 20
-5268.1468460737669
 30
0.0
 42
-0.1158283502867649
  0
VERTEX
  5
4F56
  8
0
 10
-10098.984286997969
 20
-5262.3071497606779
 30
0.0
 42
-0.1260058766128204
  0
VERTEX
  5
4F57
  8
0
 10
-10072.62191311766
 20
-5267.9707721764298
 30
0.0
 42
0.1416031919178112
  0
VERTEX
  5
4F58
  8
0
 10
-10048.92292116379
 20
-5272.3071497606779
 30
0.0
 42
0.1182297497458096
  0
VERTEX
  5
4F59
  8
0
 10
-10034.99078683868
 20
-5267.4457124753571
 30
0.0
 42
-0.1142582045074363
  0
VERTEX
  5
4F5A
  8
0
 10
-10020.62733806225
 20
-5262.3071497606779
 30
0.0
 42
-0.2321895392944741
  0
VERTEX
  5
4F5B
  8
0
 10
-10003.137333752969
 20
-5268.4991035238354
 30
0.0
 42
0.2823827117993129
  0
VERTEX
  5
4F5C
  8
0
 10
-9987.9786387521035
 20
-5272.3071497606779
 30
0.0
 42
0.1766976244461863
  0
VERTEX
  5
4F5D
  8
0
 10
-9981.4410368152548
 20
-5267.2948159036532
 30
0.0
 42
-0.1773270153938223
  0
VERTEX
  5
4F5E
  8
0
 10
-9974.9191388590843
 20
-5262.3071497606779
 30
0.0
 42
-0.2058351738198912
  0
VERTEX
  5
4F5F
  8
0
 10
-9953.7899499084106
 20
-5264.5152421599732
 30
0.0
 42
0.1331294588025776
  0
VERTEX
  5
4F60
  8
0
 10
-9922.6811897093994
 20
-5272.3071497606779
 30
0.0
 42
0.0832255166851424
  0
VERTEX
  5
4F61
  8
0
 10
-9888.2259937957624
 20
-5265.8468394471156
 30
0.0
 42
-0.1097242647440611
  0
VERTEX
  5
4F62
  8
0
 10
-9861.7368568753245
 20
-5262.3071497606797
 30
0.0
 42
-0.1094066769750613
  0
VERTEX
  5
4F63
  8
0
 10
-9844.9701726263484
 20
-5267.5613696846412
 30
0.0
 42
0.0002339245184789
  0
VERTEX
  5
4F64
  8
0
 10
-9844.9408294772948
 20
-5267.5782156134592
 30
0.0
 42
0.1635239807755977
  0
SEQEND
  5
4F65
  8
0
  0
LINE
  5
5226
  8
0
 10
-12292.658395003869
 20
-5322.3071497606779
 30
0.0
 11
-12292.658395003869
 21
-5262.3071497606779
 31
0.0
  0
LINE
  5
5232
  8
0
 10
-10292.658395003869
 20
-5322.3071497606779
 30
0.0
 11
-10292.658395003869
 21
-5262.3071497606779
 31
0.0
  0
LINE
  5
52CE
  8
DIBU
 10
-9486.3149759999997
 20
-2874.4953719999999
 30
0.0
 11
-13551.315060000001
 21
-2874.4953720000012
 31
0.0
  0
LINE
  5
5330
  8
0
 10
-12292.658395003869
 20
-5391.0973150239479
 30
0.0
 11
-12292.658395003869
 21
-5680.761264710527
 31
0.0
  0
LINE
  5
5331
  8
0
 10
-10292.658395003869
 20
-5391.0973150239479
 30
0.0
 11
-10292.658395003869
 21
-5680.761264710527
 31
0.0
  0
LINE
  5
5332
  8
0
 10
-12212.658395003869
 20
-5679.511264710527
 30
0.0
 11
-10372.658395003869
 21
-5679.511264710527
 31
0.0
  0
SOLID
  5
5333
  8
0
 10
-12212.658395003869
 20
-5666.1779313771949
 30
0.0
 11
-12212.658395003869
 21
-5692.8445980438601
 31
0.0
 12
-12292.658395003869
 22
-5679.511264710527
 32
0.0
 13
-12292.658395003869
 23
-5679.511264710527
 33
0.0
  0
SOLID
  5
5334
  8
0
 10
-10372.658395003869
 20
-5666.1779313771949
 30
0.0
 11
-10372.658395003869
 21
-5692.8445980438601
 31
0.0
 12
-10292.658395003869
 22
-5679.511264710527
 32
0.0
 13
-10292.658395003869
 23
-5679.511264710527
 33
0.0
  0
INSERT
  5
5335
  8
0
  2
*U1
 10
0.0
 20
0.0
 30
0.0
  0
LINE
  5
5371
  8
0
 10
-12807.87316858329
 20
-5273.1055777590163
 30
0.0
 11
-12974.48203522595
 21
-5273.1055777590154
 31
0.0
  0
LINE
  5
5372
  8
0
 10
-12807.87316858329
 20
-5262.3071497606788
 30
0.0
 11
-12974.48203522595
 21
-5262.3071497606779
 31
0.0
  0
LINE
  5
5373
  8
0
 10
-12973.23203522595
 20
-5353.1055777590154
 30
0.0
 11
-12973.23203522595
 21
-5433.1055777590163
 31
0.0
  0
LINE
  5
5374
  8
0
 10
-12973.23203522595
 20
-5182.3071497606779
 30
0.0
 11
-12973.23203522595
 21
-5102.3071497606779
 31
0.0
  0
INSERT
  5
5375
  8
0
  2
*U3
 10
0.0
 20
0.0
 30
0.0
  0
LINE
  5
5376
  8
0
 10
-12973.23203522595
 20
-5273.1055777590154
 30
0.0
 11
-12973.23203522595
 21
-5262.3071497606779
 31
0.0
  0
SOLID
  5
5377
  8
0
 10
-12986.56536855929
 20
-5353.1055777590154
 30
0.0
 11
-12959.89870189262
 21
-5353.1055777590154
 31
0.0
 12
-12973.23203522595
 22
-5273.1055777590154
 32
0.0
 13
-12973.23203522595
 23
-5273.1055777590154
 33
0.0
  0
SOLID
  5
5378
  8
0
 10
-12986.56536855929
 20
-5182.3071497606779
 30
0.0
 11
-12959.89870189262
 21
-5182.3071497606779
 31
0.0
 12
-12973.23203522595
 22
-5262.3071497606779
 32
0.0
 13
-12973.23203522595
 23
-5262.3071497606779
 33
0.0
  0
ENDSEC
  0
EOF
